  0
SECTION
  2
HEADER
  9
$ACADVER
  1
AC1009
  9
$DWGCODEPAGE
  3
ansi_1252
  9
$INSBASE
 10
0.0
 20
0.0
 30
0.0
  9
$EXTMIN
 10
-1090.000000000003
 20
1201.0
 30
0.0
  9
$EXTMAX
 10
351.9203029694834
 20
3186.104138529963
 30
0.0
  9
$LIMMIN
 10
0.0
 20
0.0
  9
$LIMMAX
 10
12.0
 20
9.0
  9
$ORTHOMODE
 70
     0
  9
$REGENMODE
 70
     1
  9
$FILLMODE
 70
     1
  9
$QTEXTMODE
 70
     0
  9
$MIRRTEXT
 70
     1
  9
$DRAGMODE
 70
     2
  9
$LTSCALE
 40
1.0
  9
$OSMODE
 70
    37
  9
$ATTMODE
 70
     1
  9
$TEXTSIZE
 40
0.2
  9
$TRACEWID
 40
0.05
  9
$TEXTSTYLE
  7
STANDARD
  9
$CLAYER
  8
DEFAULT
  9
$CELTYPE
  6
BYLAYER
  9
$CECOLOR
 62
   256
  9
$DIMSCALE
 40
1.0
  9
$DIMASZ
 40
0.18
  9
$DIMEXO
 40
0.0625
  9
$DIMDLI
 40
0.38
  9
$DIMRND
 40
0.0
  9
$DIMDLE
 40
0.0
  9
$DIMEXE
 40
0.18
  9
$DIMTP
 40
0.0
  9
$DIMTM
 40
0.0
  9
$DIMTXT
 40
0.18
  9
$DIMCEN
 40
0.09
  9
$DIMTSZ
 40
0.0
  9
$DIMTOL
 70
     0
  9
$DIMLIM
 70
     0
  9
$DIMTIH
 70
     1
  9
$DIMTOH
 70
     1
  9
$DIMSE1
 70
     0
  9
$DIMSE2
 70
     0
  9
$DIMTAD
 70
     0
  9
$DIMZIN
 70
     0
  9
$DIMBLK
  1

  9
$DIMASO
 70
     1
  9
$DIMSHO
 70
     1
  9
$DIMPOST
  1

  9
$DIMAPOST
  1

  9
$DIMALT
 70
     0
  9
$DIMALTD
 70
     2
  9
$DIMALTF
 40
25.4
  9
$DIMLFAC
 40
1.0
  9
$DIMTOFL
 70
     0
  9
$DIMTVP
 40
0.0
  9
$DIMTIX
 70
     0
  9
$DIMSOXD
 70
     0
  9
$DIMSAH
 70
     0
  9
$DIMBLK1
  1

  9
$DIMBLK2
  1

  9
$DIMSTYLE
  2
STANDARD
  9
$DIMCLRD
 70
     0
  9
$DIMCLRE
 70
     0
  9
$DIMCLRT
 70
     0
  9
$DIMTFAC
 40
1.0
  9
$DIMGAP
 40
0.09
  9
$LUNITS
 70
     2
  9
$LUPREC
 70
     3
  9
$SKETCHINC
 40
0.1
  9
$FILLETRAD
 40
0.5
  9
$AUNITS
 70
     0
  9
$AUPREC
 70
     0
  9
$MENU
  1
.
  9
$ELEVATION
 40
0.0
  9
$PELEVATION
 40
0.0
  9
$THICKNESS
 40
0.0
  9
$LIMCHECK
 70
     0
  9
$CHAMFERA
 40
0.0
  9
$CHAMFERB
 40
0.0
  9
$SKPOLY
 70
     0
  9
$TDCREATE
 40
2458993.701320116
  9
$TDUPDATE
 40
2458993.701320243
  9
$TDINDWG
 40
0.0000000116
  9
$TDUSRTIMER
 40
0.0000000116
  9
$USRTIMER
 70
     1
  9
$ANGBASE
 50
0.0
  9
$ANGDIR
 70
     0
  9
$PDMODE
 70
     0
  9
$PDSIZE
 40
0.0
  9
$PLINEWID
 40
0.0
  9
$COORDS
 70
     1
  9
$SPLFRAME
 70
     0
  9
$SPLINETYPE
 70
     6
  9
$SPLINESEGS
 70
     8
  9
$ATTDIA
 70
     0
  9
$ATTREQ
 70
     1
  9
$HANDLING
 70
     1
  9
$HANDSEED
  5
706
  9
$SURFTAB1
 70
     6
  9
$SURFTAB2
 70
     6
  9
$SURFTYPE
 70
     6
  9
$SURFU
 70
     6
  9
$SURFV
 70
     6
  9
$UCSNAME
  2

  9
$UCSORG
 10
0.0
 20
0.0
 30
0.0
  9
$UCSXDIR
 10
1.0
 20
0.0
 30
0.0
  9
$UCSYDIR
 10
0.0
 20
1.0
 30
0.0
  9
$PUCSNAME
  2

  9
$PUCSORG
 10
0.0
 20
0.0
 30
0.0
  9
$PUCSXDIR
 10
1.0
 20
0.0
 30
0.0
  9
$PUCSYDIR
 10
0.0
 20
1.0
 30
0.0
  9
$USERI1
 70
     0
  9
$USERI2
 70
     0
  9
$USERI3
 70
     0
  9
$USERI4
 70
     0
  9
$USERI5
 70
     0
  9
$USERR1
 40
0.0
  9
$USERR2
 40
0.0
  9
$USERR3
 40
0.0
  9
$USERR4
 40
0.0
  9
$USERR5
 40
0.0
  9
$WORLDVIEW
 70
     1
  9
$SHADEDGE
 70
     3
  9
$SHADEDIF
 70
    70
  9
$TILEMODE
 70
     1
  9
$MAXACTVP
 70
    64
  9
$PLIMCHECK
 70
     0
  9
$PEXTMIN
 10
1.000000000000000E+20
 20
1.000000000000000E+20
 30
1.000000000000000E+20
  9
$PEXTMAX
 10
-1.000000000000000E+20
 20
-1.000000000000000E+20
 30
-1.000000000000000E+20
  9
$PLIMMIN
 10
0.0
 20
0.0
  9
$PLIMMAX
 10
12.0
 20
9.0
  9
$UNITMODE
 70
     0
  9
$VISRETAIN
 70
     1
  9
$PLINEGEN
 70
     0
  9
$PSLTSCALE
 70
     1
  0
ENDSEC
  0
SECTION
  2
TABLES
  0
TABLE
  2
VPORT
 70
     1
  0
VPORT
  2
*ACTIVE
 70
     0
 10
0.0
 20
0.0
 11
1.0
 21
1.0
 12
-369.0398485152597
 22
2193.552069264982
 13
0.0
 23
0.0
 14
0.5
 24
0.5
 15
0.5
 25
0.5
 16
0.0
 26
0.0
 36
1.0
 17
0.0
 27
0.0
 37
0.0
 40
2024.806221300562
 41
0.7263701057201348
 42
50.0
 43
0.0
 44
0.0
 50
0.0
 51
0.0
 71
     0
 72
   100
 73
     1
 74
     3
 75
     0
 76
     0
 77
     0
 78
     0
  0
ENDTAB
  0
TABLE
  2
LTYPE
 70
     1
  0
LTYPE
  2
CONTINUOUS
 70
     0
  3
Solid line
 72
    65
 73
     0
 40
0.0
  0
ENDTAB
  0
TABLE
  2
LAYER
 70
     6
  0
LAYER
  2
0
 70
     0
 62
     7
  6
CONTINUOUS
  0
LAYER
  2
OUTSIDE_THROUGH
 70
     0
 62
    12
  6
CONTINUOUS
  0
LAYER
  2
INSIDE_POCKET_10MM
 70
     0
 62
    96
  6
CONTINUOUS
  0
LAYER
  2
INSIDE_THROUGH
 70
     0
 62
   192
  6
CONTINUOUS
  0
LAYER
  2
INSIDE_POCKET_15MM
 70
     0
 62
    30
  6
CONTINUOUS
  0
LAYER
  2
DEFAULT
 70
     0
 62
     7
  6
CONTINUOUS
  0
ENDTAB
  0
TABLE
  2
STYLE
 70
     1
  0
STYLE
  2
STANDARD
 70
     0
 40
0.0
 41
1.0
 50
0.0
 71
     0
 42
0.2
  3
txt
  4

  0
ENDTAB
  0
TABLE
  2
VIEW
 70
     0
  0
ENDTAB
  0
TABLE
  2
UCS
 70
     0
  0
ENDTAB
  0
TABLE
  2
APPID
 70
     1
  0
APPID
  2
ACAD
 70
     0
  0
ENDTAB
  0
TABLE
  2
DIMSTYLE
 70
     1
  0
DIMSTYLE
  2
STANDARD
 70
     0
  3

  4

  5

  6

  7

 40
1.0
 41
0.18
 42
0.0625
 43
0.38
 44
0.18
 45
0.0
 46
0.0
 47
0.0
 48
0.0
140
0.18
141
0.09
142
0.0
143
25.4
144
1.0
145
0.0
146
1.0
147
0.09
 71
     0
 72
     0
 73
     1
 74
     1
 75
     0
 76
     0
 77
     0
 78
     0
170
     0
171
     2
172
     0
173
     0
174
     0
175
     0
176
     0
177
     0
178
     0
  0
ENDTAB
  0
ENDSEC
  0
SECTION
  2
BLOCKS
  0
BLOCK
  8
0
  2
$MODEL_SPACE
 70
     0
 10
0.0
 20
0.0
 30
0.0
  3
$MODEL_SPACE
  1

  0
ENDBLK
  5
21
  8
0
  0
BLOCK
 67
     1
  8
0
  2
$PAPER_SPACE
 70
     0
 10
0.0
 20
0.0
 30
0.0
  3
$PAPER_SPACE
  1

  0
ENDBLK
  5
1D
 67
     1
  8
0
  0
ENDSEC
  0
SECTION
  2
ENTITIES
  0
LINE
  5
6F
  8
OUTSIDE_THROUGH
 10
-227.0000000000009
 20
2150.09375
 30
0.0
 11
-227.0000000000009
 21
2170.09375
 31
0.0
  0
LINE
  5
70
  8
OUTSIDE_THROUGH
 10
-227.0000000000009
 20
2170.09375
 30
0.0
 11
-257.0000000000009
 21
2170.09375
 31
0.0
  0
LINE
  5
71
  8
OUTSIDE_THROUGH
 10
-257.0000000000009
 20
2170.09375
 30
0.0
 11
-257.0000000000009
 21
2150.09375
 31
0.0
  0
LINE
  5
72
  8
OUTSIDE_THROUGH
 10
-257.0000000000009
 20
2150.09375
 30
0.0
 11
-287.7757061674865
 21
2150.09375
 31
0.0
  0
LINE
  5
73
  8
OUTSIDE_THROUGH
 10
-287.7757061674865
 20
2150.09375
 30
0.0
 11
-289.825180687528
 21
2150.12979888916
 31
0.0
  0
LINE
  5
74
  8
OUTSIDE_THROUGH
 10
-289.825180687528
 20
2150.12979888916
 30
0.0
 11
-291.8985514278805
 21
2150.235656738281
 31
0.0
  0
LINE
  5
75
  8
OUTSIDE_THROUGH
 10
-291.8985514278805
 20
2150.235656738281
 30
0.0
 11
-293.99319679928
 21
2150.407890319824
 31
0.0
  0
LINE
  5
76
  8
OUTSIDE_THROUGH
 10
-293.99319679928
 20
2150.407890319824
 30
0.0
 11
-296.1064952124624
 21
2150.64306640625
 31
0.0
  0
LINE
  5
77
  8
OUTSIDE_THROUGH
 10
-296.1064952124624
 20
2150.64306640625
 30
0.0
 11
-298.2358250781638
 21
2150.93775177002
 31
0.0
  0
LINE
  5
78
  8
OUTSIDE_THROUGH
 10
-298.2358250781638
 20
2150.93775177002
 30
0.0
 11
-300.3785648071199
 21
2151.288513183594
 31
0.0
  0
LINE
  5
79
  8
OUTSIDE_THROUGH
 10
-300.3785648071199
 20
2151.288513183594
 30
0.0
 11
-302.5320928100667
 21
2151.691917419434
 31
0.0
  0
LINE
  5
7A
  8
OUTSIDE_THROUGH
 10
-302.5320928100667
 20
2151.691917419434
 30
0.0
 11
-304.6937874977403
 21
2152.14453125
 31
0.0
  0
LINE
  5
7B
  8
OUTSIDE_THROUGH
 10
-304.6937874977403
 20
2152.14453125
 30
0.0
 11
-306.8610272808764
 21
2152.642921447754
 31
0.0
  0
LINE
  5
7C
  8
OUTSIDE_THROUGH
 10
-306.8610272808764
 20
2152.642921447754
 30
0.0
 11
-309.031190570211
 21
2153.183654785156
 31
0.0
  0
LINE
  5
7D
  8
OUTSIDE_THROUGH
 10
-309.031190570211
 20
2153.183654785156
 30
0.0
 11
-313.3698013104197
 21
2154.37841796875
 31
0.0
  0
LINE
  5
7E
  8
OUTSIDE_THROUGH
 10
-313.3698013104197
 20
2154.37841796875
 30
0.0
 11
-317.6886470042538
 21
2155.701354980469
 31
0.0
  0
LINE
  5
7F
  8
OUTSIDE_THROUGH
 10
-317.6886470042538
 20
2155.701354980469
 30
0.0
 11
-321.9667549376006
 21
2157.125
 31
0.0
  0
LINE
  5
80
  8
OUTSIDE_THROUGH
 10
-321.9667549376006
 20
2157.125
 30
0.0
 11
-330.3168666663826
 21
2160.16455078125
 31
0.0
  0
LINE
  5
81
  8
OUTSIDE_THROUGH
 10
-330.3168666663826
 20
2160.16455078125
 30
0.0
 11
-352.208333333332
 21
2168.84375
 31
0.0
  0
LINE
  5
82
  8
OUTSIDE_THROUGH
 10
-352.208333333332
 20
2168.84375
 30
0.0
 11
-355.1843058268216
 21
2169.9423828125
 31
0.0
  0
LINE
  5
83
  8
OUTSIDE_THROUGH
 10
-355.1843058268216
 20
2169.9423828125
 30
0.0
 11
-357.9594726562488
 21
2170.89453125
 31
0.0
  0
LINE
  5
84
  8
OUTSIDE_THROUGH
 10
-357.9594726562488
 20
2170.89453125
 30
0.0
 11
-360.562520345051
 21
2171.7001953125
 31
0.0
  0
LINE
  5
85
  8
OUTSIDE_THROUGH
 10
-360.562520345051
 20
2171.7001953125
 30
0.0
 11
-361.8084640502918
 21
2172.048095703125
 31
0.0
  0
LINE
  5
86
  8
OUTSIDE_THROUGH
 10
-361.8084640502918
 20
2172.048095703125
 30
0.0
 11
-363.0221354166656
 21
2172.359375
 31
0.0
  0
LINE
  5
87
  8
OUTSIDE_THROUGH
 10
-363.0221354166656
 20
2172.359375
 30
0.0
 11
-364.2071202596018
 21
2172.634033203125
 31
0.0
  0
LINE
  5
88
  8
OUTSIDE_THROUGH
 10
-364.2071202596018
 20
2172.634033203125
 30
0.0
 11
-365.3670043945302
 21
2172.8720703125
 31
0.0
  0
LINE
  5
89
  8
OUTSIDE_THROUGH
 10
-365.3670043945302
 20
2172.8720703125
 30
0.0
 11
-366.5053736368804
 21
2173.073486328125
 31
0.0
  0
LINE
  5
8A
  8
OUTSIDE_THROUGH
 10
-366.5053736368804
 20
2173.073486328125
 30
0.0
 11
-367.6258138020823
 21
2173.23828125
 31
0.0
  0
LINE
  5
8B
  8
OUTSIDE_THROUGH
 10
-367.6258138020823
 20
2173.23828125
 30
0.0
 11
-368.7319107055654
 21
2173.366455078125
 31
0.0
  0
LINE
  5
8C
  8
OUTSIDE_THROUGH
 10
-368.7319107055654
 20
2173.366455078125
 30
0.0
 11
-369.8272501627594
 21
2173.4580078125
 31
0.0
  0
LINE
  5
8D
  8
OUTSIDE_THROUGH
 10
-369.8272501627594
 20
2173.4580078125
 30
0.0
 11
-370.915417989094
 21
2173.512939453125
 31
0.0
  0
LINE
  5
8E
  8
OUTSIDE_THROUGH
 10
-370.915417989094
 20
2173.512939453125
 30
0.0
 11
-371.999999999999
 21
2173.53125
 31
0.0
  0
LINE
  5
8F
  8
OUTSIDE_THROUGH
 10
-371.999999999999
 20
2173.53125
 30
0.0
 11
-373.084582010904
 21
2173.512939453125
 31
0.0
  0
LINE
  5
90
  8
OUTSIDE_THROUGH
 10
-373.084582010904
 20
2173.512939453125
 30
0.0
 11
-374.1727498372387
 21
2173.4580078125
 31
0.0
  0
LINE
  5
91
  8
OUTSIDE_THROUGH
 10
-374.1727498372387
 20
2173.4580078125
 30
0.0
 11
-375.2680892944327
 21
2173.366455078125
 31
0.0
  0
LINE
  5
92
  8
OUTSIDE_THROUGH
 10
-375.2680892944327
 20
2173.366455078125
 30
0.0
 11
-376.3741861979157
 21
2173.23828125
 31
0.0
  0
LINE
  5
93
  8
OUTSIDE_THROUGH
 10
-376.3741861979157
 20
2173.23828125
 30
0.0
 11
-377.4946263631176
 21
2173.073486328125
 31
0.0
  0
LINE
  5
94
  8
OUTSIDE_THROUGH
 10
-377.4946263631176
 20
2173.073486328125
 30
0.0
 11
-378.6329956054678
 21
2172.8720703125
 31
0.0
  0
LINE
  5
95
  8
OUTSIDE_THROUGH
 10
-378.6329956054678
 20
2172.8720703125
 30
0.0
 11
-379.7928797403962
 21
2172.634033203125
 31
0.0
  0
LINE
  5
96
  8
OUTSIDE_THROUGH
 10
-379.7928797403962
 20
2172.634033203125
 30
0.0
 11
-380.9778645833324
 21
2172.359375
 31
0.0
  0
LINE
  5
97
  8
OUTSIDE_THROUGH
 10
-380.9778645833324
 20
2172.359375
 30
0.0
 11
-382.1915359497061
 21
2172.048095703125
 31
0.0
  0
LINE
  5
98
  8
OUTSIDE_THROUGH
 10
-382.1915359497061
 20
2172.048095703125
 30
0.0
 11
-383.437479654947
 21
2171.7001953125
 31
0.0
  0
LINE
  5
99
  8
OUTSIDE_THROUGH
 10
-383.437479654947
 20
2171.7001953125
 30
0.0
 11
-386.0405273437491
 21
2170.89453125
 31
0.0
  0
LINE
  5
9A
  8
OUTSIDE_THROUGH
 10
-386.0405273437491
 20
2170.89453125
 30
0.0
 11
-388.8156941731762
 21
2169.9423828125
 31
0.0
  0
LINE
  5
9B
  8
OUTSIDE_THROUGH
 10
-388.8156941731762
 20
2169.9423828125
 30
0.0
 11
-391.7916666666657
 21
2168.84375
 31
0.0
  0
LINE
  5
9C
  8
OUTSIDE_THROUGH
 10
-391.7916666666657
 20
2168.84375
 30
0.0
 11
-413.6831333336146
 21
2160.16455078125
 31
0.0
  0
LINE
  5
9D
  8
OUTSIDE_THROUGH
 10
-413.6831333336146
 20
2160.16455078125
 30
0.0
 11
-422.0332450623965
 21
2157.125
 31
0.0
  0
LINE
  5
9E
  8
OUTSIDE_THROUGH
 10
-422.0332450623965
 20
2157.125
 30
0.0
 11
-426.3113529957433
 21
2155.701354980469
 31
0.0
  0
LINE
  5
9F
  8
OUTSIDE_THROUGH
 10
-426.3113529957433
 20
2155.701354980469
 30
0.0
 11
-430.6301986895774
 21
2154.37841796875
 31
0.0
  0
LINE
  5
A0
  8
OUTSIDE_THROUGH
 10
-430.6301986895774
 20
2154.37841796875
 30
0.0
 11
-434.9688094297861
 21
2153.183654785156
 31
0.0
  0
LINE
  5
A1
  8
OUTSIDE_THROUGH
 10
-434.9688094297861
 20
2153.183654785156
 30
0.0
 11
-437.1389727191208
 21
2152.642921447754
 31
0.0
  0
LINE
  5
A2
  8
OUTSIDE_THROUGH
 10
-437.1389727191208
 20
2152.642921447754
 30
0.0
 11
-439.306212502257
 21
2152.14453125
 31
0.0
  0
LINE
  5
A3
  8
OUTSIDE_THROUGH
 10
-439.306212502257
 20
2152.14453125
 30
0.0
 11
-441.4679071899305
 21
2151.691917419434
 31
0.0
  0
LINE
  5
A4
  8
OUTSIDE_THROUGH
 10
-441.4679071899305
 20
2151.691917419434
 30
0.0
 11
-443.6214351928775
 21
2151.288513183594
 31
0.0
  0
LINE
  5
A5
  8
OUTSIDE_THROUGH
 10
-443.6214351928775
 20
2151.288513183594
 30
0.0
 11
-445.7641749218337
 21
2150.93775177002
 31
0.0
  0
LINE
  5
A6
  8
OUTSIDE_THROUGH
 10
-445.7641749218337
 20
2150.93775177002
 30
0.0
 11
-447.8935047875352
 21
2150.64306640625
 31
0.0
  0
LINE
  5
A7
  8
OUTSIDE_THROUGH
 10
-447.8935047875352
 20
2150.64306640625
 30
0.0
 11
-450.0068032007177
 21
2150.407890319824
 31
0.0
  0
LINE
  5
A8
  8
OUTSIDE_THROUGH
 10
-450.0068032007177
 20
2150.407890319824
 30
0.0
 11
-452.1014485721174
 21
2150.235656738281
 31
0.0
  0
LINE
  5
A9
  8
OUTSIDE_THROUGH
 10
-452.1014485721174
 20
2150.235656738281
 30
0.0
 11
-454.17481931247
 21
2150.12979888916
 31
0.0
  0
LINE
  5
AA
  8
OUTSIDE_THROUGH
 10
-454.17481931247
 20
2150.12979888916
 30
0.0
 11
-456.2242938325116
 21
2150.09375
 31
0.0
  0
LINE
  5
AB
  8
OUTSIDE_THROUGH
 10
-456.2242938325116
 20
2150.09375
 30
0.0
 11
-487.0000000000009
 21
2150.09375
 31
0.0
  0
LINE
  5
AC
  8
OUTSIDE_THROUGH
 10
-487.0000000000009
 20
2150.09375
 30
0.0
 11
-487.0000000000009
 21
2170.09375
 31
0.0
  0
LINE
  5
AD
  8
OUTSIDE_THROUGH
 10
-487.0000000000009
 20
2170.09375
 30
0.0
 11
-517.0000000000009
 21
2170.09375
 31
0.0
  0
LINE
  5
AE
  8
OUTSIDE_THROUGH
 10
-517.0000000000009
 20
2170.09375
 30
0.0
 11
-517.0000000000009
 21
2150.09375
 31
0.0
  0
LINE
  5
AF
  8
OUTSIDE_THROUGH
 10
-517.0000000000009
 20
2150.09375
 30
0.0
 11
-564.0000000000009
 21
2150.09375
 31
0.0
  0
LINE
  5
B0
  8
OUTSIDE_THROUGH
 10
-564.0000000000009
 20
2150.09375
 30
0.0
 11
-566.7277234395355
 21
2150.140613555908
 31
0.0
  0
LINE
  5
B1
  8
OUTSIDE_THROUGH
 10
-566.7277234395355
 20
2150.140613555908
 30
0.0
 11
-569.564951578777
 21
2150.278228759766
 31
0.0
  0
LINE
  5
B2
  8
OUTSIDE_THROUGH
 10
-569.564951578777
 20
2150.278228759766
 30
0.0
 11
-572.5083961486826
 21
2150.502132415771
 31
0.0
  0
LINE
  5
B3
  8
OUTSIDE_THROUGH
 10
-572.5083961486826
 20
2150.502132415771
 30
0.0
 11
-575.5547688802093
 21
2150.807861328125
 31
0.0
  0
LINE
  5
B4
  8
OUTSIDE_THROUGH
 10
-575.5547688802093
 20
2150.807861328125
 30
0.0
 11
-578.7007815043141
 21
2151.190952301025
 31
0.0
  0
LINE
  5
B5
  8
OUTSIDE_THROUGH
 10
-578.7007815043141
 20
2151.190952301025
 30
0.0
 11
-581.943145751954
 21
2151.646942138672
 31
0.0
  0
LINE
  5
B6
  8
OUTSIDE_THROUGH
 10
-581.943145751954
 20
2151.646942138672
 30
0.0
 11
-588.7037760416677
 21
2152.759765625
 31
0.0
  0
LINE
  5
B7
  8
OUTSIDE_THROUGH
 10
-588.7037760416677
 20
2152.759765625
 30
0.0
 11
-595.8103535970062
 21
2154.110626220703
 31
0.0
  0
LINE
  5
B8
  8
OUTSIDE_THROUGH
 10
-595.8103535970062
 20
2154.110626220703
 30
0.0
 11
-670.9966634114593
 21
2171.088623046875
 31
0.0
  0
LINE
  5
B9
  8
OUTSIDE_THROUGH
 10
-670.9966634114593
 20
2171.088623046875
 30
0.0
 11
-680.1158752441415
 21
2172.856048583984
 31
0.0
  0
LINE
  5
BA
  8
OUTSIDE_THROUGH
 10
-680.1158752441415
 20
2172.856048583984
 30
0.0
 11
-689.2916666666677
 21
2174.46875
 31
0.0
  0
LINE
  5
BB
  8
OUTSIDE_THROUGH
 10
-689.2916666666677
 20
2174.46875
 30
0.0
 11
-698.501485188803
 21
2175.89697265625
 31
0.0
  0
LINE
  5
BC
  8
OUTSIDE_THROUGH
 10
-698.501485188803
 20
2175.89697265625
 30
0.0
 11
-707.7377929687509
 21
2177.134765625
 31
0.0
  0
LINE
  5
BD
  8
OUTSIDE_THROUGH
 10
-707.7377929687509
 20
2177.134765625
 30
0.0
 11
-716.9968058268239
 21
2178.18212890625
 31
0.0
  0
LINE
  5
BE
  8
OUTSIDE_THROUGH
 10
-716.9968058268239
 20
2178.18212890625
 30
0.0
 11
-726.2747395833343
 21
2179.0390625
 31
0.0
  0
LINE
  5
BF
  8
OUTSIDE_THROUGH
 10
-726.2747395833343
 20
2179.0390625
 30
0.0
 11
-735.5678100585947
 21
2179.70556640625
 31
0.0
  0
LINE
  5
C0
  8
OUTSIDE_THROUGH
 10
-735.5678100585947
 20
2179.70556640625
 30
0.0
 11
-744.8722330729177
 21
2180.181640625
 31
0.0
  0
LINE
  5
C1
  8
OUTSIDE_THROUGH
 10
-744.8722330729177
 20
2180.181640625
 30
0.0
 11
-754.1842244466155
 21
2180.46728515625
 31
0.0
  0
LINE
  5
C2
  8
OUTSIDE_THROUGH
 10
-754.1842244466155
 20
2180.46728515625
 30
0.0
 11
-763.5000000000009
 21
2180.5625
 31
0.0
  0
LINE
  5
C3
  8
OUTSIDE_THROUGH
 10
-763.5000000000009
 20
2180.5625
 30
0.0
 11
-772.8157755533864
 21
2180.46728515625
 31
0.0
  0
LINE
  5
C4
  8
OUTSIDE_THROUGH
 10
-772.8157755533864
 20
2180.46728515625
 30
0.0
 11
-782.1277669270843
 21
2180.181640625
 31
0.0
  0
LINE
  5
C5
  8
OUTSIDE_THROUGH
 10
-782.1277669270843
 20
2180.181640625
 30
0.0
 11
-791.4321899414072
 21
2179.70556640625
 31
0.0
  0
LINE
  5
C6
  8
OUTSIDE_THROUGH
 10
-791.4321899414072
 20
2179.70556640625
 30
0.0
 11
-800.7252604166677
 21
2179.0390625
 31
0.0
  0
LINE
  5
C7
  8
OUTSIDE_THROUGH
 10
-800.7252604166677
 20
2179.0390625
 30
0.0
 11
-810.003194173178
 21
2178.18212890625
 31
0.0
  0
LINE
  5
C8
  8
OUTSIDE_THROUGH
 10
-810.003194173178
 20
2178.18212890625
 30
0.0
 11
-819.2622070312509
 21
2177.134765625
 31
0.0
  0
LINE
  5
C9
  8
OUTSIDE_THROUGH
 10
-819.2622070312509
 20
2177.134765625
 30
0.0
 11
-828.4985148111989
 21
2175.89697265625
 31
0.0
  0
LINE
  5
CA
  8
OUTSIDE_THROUGH
 10
-828.4985148111989
 20
2175.89697265625
 30
0.0
 11
-837.7083333333344
 21
2174.46875
 31
0.0
  0
LINE
  5
CB
  8
OUTSIDE_THROUGH
 10
-837.7083333333344
 20
2174.46875
 30
0.0
 11
-846.8841247558603
 21
2172.856048583984
 31
0.0
  0
LINE
  5
CC
  8
OUTSIDE_THROUGH
 10
-846.8841247558603
 20
2172.856048583984
 30
0.0
 11
-856.0033365885427
 21
2171.088623046875
 31
0.0
  0
LINE
  5
CD
  8
OUTSIDE_THROUGH
 10
-856.0033365885427
 20
2171.088623046875
 30
0.0
 11
-931.1896464029958
 21
2154.110626220703
 31
0.0
  0
LINE
  5
CE
  8
OUTSIDE_THROUGH
 10
-931.1896464029958
 20
2154.110626220703
 30
0.0
 11
-938.2962239583343
 21
2152.759765625
 31
0.0
  0
LINE
  5
CF
  8
OUTSIDE_THROUGH
 10
-938.2962239583343
 20
2152.759765625
 30
0.0
 11
-945.0568542480478
 21
2151.646942138672
 31
0.0
  0
LINE
  5
D0
  8
OUTSIDE_THROUGH
 10
-945.0568542480478
 20
2151.646942138672
 30
0.0
 11
-948.2992184956878
 21
2151.190952301025
 31
0.0
  0
LINE
  5
D1
  8
OUTSIDE_THROUGH
 10
-948.2992184956878
 20
2151.190952301025
 30
0.0
 11
-951.4452311197927
 21
2150.807861328125
 31
0.0
  0
LINE
  5
D2
  8
OUTSIDE_THROUGH
 10
-951.4452311197927
 20
2150.807861328125
 30
0.0
 11
-954.4916038513193
 21
2150.502132415771
 31
0.0
  0
LINE
  5
D3
  8
OUTSIDE_THROUGH
 10
-954.4916038513193
 20
2150.502132415771
 30
0.0
 11
-957.4350484212249
 21
2150.278228759766
 31
0.0
  0
LINE
  5
D4
  8
OUTSIDE_THROUGH
 10
-957.4350484212249
 20
2150.278228759766
 30
0.0
 11
-960.2722765604665
 21
2150.140613555908
 31
0.0
  0
LINE
  5
D5
  8
OUTSIDE_THROUGH
 10
-960.2722765604665
 20
2150.140613555908
 30
0.0
 11
-963.0000000000009
 21
2150.09375
 31
0.0
  0
LINE
  5
D6
  8
OUTSIDE_THROUGH
 10
-963.0000000000009
 20
2150.09375
 30
0.0
 11
-1010.000000000001
 21
2150.09375
 31
0.0
  0
LINE
  5
D7
  8
OUTSIDE_THROUGH
 10
-1010.000000000001
 20
2150.09375
 30
0.0
 11
-1010.000000000001
 21
2170.09375
 31
0.0
  0
LINE
  5
D8
  8
OUTSIDE_THROUGH
 10
-1010.000000000001
 20
2170.09375
 30
0.0
 11
-1040.000000000001
 21
2170.09375
 31
0.0
  0
LINE
  5
D9
  8
OUTSIDE_THROUGH
 10
-1040.000000000001
 20
2170.09375
 30
0.0
 11
-1040.000000000001
 21
2150.09375
 31
0.0
  0
LINE
  5
DA
  8
OUTSIDE_THROUGH
 10
-1040.000000000001
 20
2150.09375
 30
0.0
 11
-1070.000000000001
 21
2150.09375
 31
0.0
  0
ARC
  5
DB
  8
OUTSIDE_THROUGH
 10
-1070.000000000001
 20
2170.09375
 30
0.0
 40
20.0
 50
180.0
 51
270.0
  0
LINE
  5
DC
  8
OUTSIDE_THROUGH
 10
-1090.000000000001
 20
2170.09375
 30
0.0
 11
-1090.000000000003
 21
2230.09375
 31
0.0
  0
LINE
  5
DD
  8
OUTSIDE_THROUGH
 10
-1090.000000000003
 20
2230.09375
 30
0.0
 11
-973.0000000000009
 21
2230.09375
 31
0.0
  0
LINE
  5
DE
  8
OUTSIDE_THROUGH
 10
-973.0000000000009
 20
2230.09375
 30
0.0
 11
-973.0000000000009
 21
2215.09375
 31
0.0
  0
LINE
  5
DF
  8
OUTSIDE_THROUGH
 10
-973.0000000000009
 20
2215.09375
 30
0.0
 11
-953.0000000000009
 21
2215.09375
 31
0.0
  0
LINE
  5
E0
  8
OUTSIDE_THROUGH
 10
-953.0000000000009
 20
2215.09375
 30
0.0
 11
-953.0000000000009
 21
2230.09375
 31
0.0
  0
LINE
  5
E1
  8
OUTSIDE_THROUGH
 10
-953.0000000000009
 20
2230.09375
 30
0.0
 11
-916.0000000000009
 21
2230.09375
 31
0.0
  0
LINE
  5
E2
  8
OUTSIDE_THROUGH
 10
-916.0000000000009
 20
2230.09375
 30
0.0
 11
-916.0000000000009
 21
2215.09375
 31
0.0
  0
LINE
  5
E3
  8
OUTSIDE_THROUGH
 10
-916.0000000000009
 20
2215.09375
 30
0.0
 11
-896.0000000000009
 21
2215.09375
 31
0.0
  0
LINE
  5
E4
  8
OUTSIDE_THROUGH
 10
-896.0000000000009
 20
2215.09375
 30
0.0
 11
-896.0000000000009
 21
2230.09375
 31
0.0
  0
LINE
  5
E5
  8
OUTSIDE_THROUGH
 10
-896.0000000000009
 20
2230.09375
 30
0.0
 11
-859.0000000000009
 21
2230.09375
 31
0.0
  0
LINE
  5
E6
  8
OUTSIDE_THROUGH
 10
-859.0000000000009
 20
2230.09375
 30
0.0
 11
-859.0000000000009
 21
2215.09375
 31
0.0
  0
LINE
  5
E7
  8
OUTSIDE_THROUGH
 10
-859.0000000000009
 20
2215.09375
 30
0.0
 11
-839.0000000000009
 21
2215.09375
 31
0.0
  0
LINE
  5
E8
  8
OUTSIDE_THROUGH
 10
-839.0000000000009
 20
2215.09375
 30
0.0
 11
-839.0000000000009
 21
2230.09375
 31
0.0
  0
LINE
  5
E9
  8
OUTSIDE_THROUGH
 10
-839.0000000000009
 20
2230.09375
 30
0.0
 11
-802.0000000000009
 21
2230.09375
 31
0.0
  0
LINE
  5
EA
  8
OUTSIDE_THROUGH
 10
-802.0000000000009
 20
2230.09375
 30
0.0
 11
-802.0000000000009
 21
2215.09375
 31
0.0
  0
LINE
  5
EB
  8
OUTSIDE_THROUGH
 10
-802.0000000000009
 20
2215.09375
 30
0.0
 11
-782.0000000000009
 21
2215.09375
 31
0.0
  0
LINE
  5
EC
  8
OUTSIDE_THROUGH
 10
-782.0000000000009
 20
2215.09375
 30
0.0
 11
-782.0000000000009
 21
2230.09375
 31
0.0
  0
LINE
  5
ED
  8
OUTSIDE_THROUGH
 10
-782.0000000000009
 20
2230.09375
 30
0.0
 11
-763.5000000000009
 21
2230.09375
 31
0.0
  0
LINE
  5
EE
  8
OUTSIDE_THROUGH
 10
-763.5000000000009
 20
2230.09375
 30
0.0
 11
-745.0000000000009
 21
2230.09375
 31
0.0
  0
LINE
  5
EF
  8
OUTSIDE_THROUGH
 10
-745.0000000000009
 20
2230.09375
 30
0.0
 11
-745.0000000000009
 21
2215.09375
 31
0.0
  0
LINE
  5
F0
  8
OUTSIDE_THROUGH
 10
-745.0000000000009
 20
2215.09375
 30
0.0
 11
-725.0000000000009
 21
2215.09375
 31
0.0
  0
LINE
  5
F1
  8
OUTSIDE_THROUGH
 10
-725.0000000000009
 20
2215.09375
 30
0.0
 11
-725.0000000000009
 21
2230.09375
 31
0.0
  0
LINE
  5
F2
  8
OUTSIDE_THROUGH
 10
-725.0000000000009
 20
2230.09375
 30
0.0
 11
-688.0000000000009
 21
2230.09375
 31
0.0
  0
LINE
  5
F3
  8
OUTSIDE_THROUGH
 10
-688.0000000000009
 20
2230.09375
 30
0.0
 11
-688.0000000000009
 21
2215.09375
 31
0.0
  0
LINE
  5
F4
  8
OUTSIDE_THROUGH
 10
-688.0000000000009
 20
2215.09375
 30
0.0
 11
-668.0000000000009
 21
2215.09375
 31
0.0
  0
LINE
  5
F5
  8
OUTSIDE_THROUGH
 10
-668.0000000000009
 20
2215.09375
 30
0.0
 11
-668.0000000000009
 21
2230.09375
 31
0.0
  0
LINE
  5
F6
  8
OUTSIDE_THROUGH
 10
-668.0000000000009
 20
2230.09375
 30
0.0
 11
-631.0000000000009
 21
2230.09375
 31
0.0
  0
LINE
  5
F7
  8
OUTSIDE_THROUGH
 10
-631.0000000000009
 20
2230.09375
 30
0.0
 11
-631.0000000000009
 21
2215.09375
 31
0.0
  0
LINE
  5
F8
  8
OUTSIDE_THROUGH
 10
-631.0000000000009
 20
2215.09375
 30
0.0
 11
-611.0000000000009
 21
2215.09375
 31
0.0
  0
LINE
  5
F9
  8
OUTSIDE_THROUGH
 10
-611.0000000000009
 20
2215.09375
 30
0.0
 11
-611.0000000000009
 21
2230.09375
 31
0.0
  0
LINE
  5
FA
  8
OUTSIDE_THROUGH
 10
-611.0000000000009
 20
2230.09375
 30
0.0
 11
-574.0000000000009
 21
2230.09375
 31
0.0
  0
LINE
  5
FB
  8
OUTSIDE_THROUGH
 10
-574.0000000000009
 20
2230.09375
 30
0.0
 11
-574.0000000000009
 21
2215.09375
 31
0.0
  0
LINE
  5
FC
  8
OUTSIDE_THROUGH
 10
-574.0000000000009
 20
2215.09375
 30
0.0
 11
-554.0000000000009
 21
2215.09375
 31
0.0
  0
LINE
  5
FD
  8
OUTSIDE_THROUGH
 10
-554.0000000000009
 20
2215.09375
 30
0.0
 11
-554.0000000000009
 21
2230.09375
 31
0.0
  0
LINE
  5
FE
  8
OUTSIDE_THROUGH
 10
-554.0000000000009
 20
2230.09375
 30
0.0
 11
-381.9999999999991
 21
2230.09375
 31
0.0
  0
LINE
  5
FF
  8
OUTSIDE_THROUGH
 10
-381.9999999999991
 20
2230.09375
 30
0.0
 11
-381.9999999999991
 21
2215.09375
 31
0.0
  0
LINE
  5
100
  8
OUTSIDE_THROUGH
 10
-381.9999999999991
 20
2215.09375
 30
0.0
 11
-361.9999999999991
 21
2215.09375
 31
0.0
  0
LINE
  5
101
  8
OUTSIDE_THROUGH
 10
-361.9999999999991
 20
2215.09375
 30
0.0
 11
-361.9999999999991
 21
2230.09375
 31
0.0
  0
LINE
  5
102
  8
OUTSIDE_THROUGH
 10
-361.9999999999991
 20
2230.09375
 30
0.0
 11
-190.0000000000009
 21
2230.09375
 31
0.0
  0
LINE
  5
103
  8
OUTSIDE_THROUGH
 10
-190.0000000000009
 20
2230.09375
 30
0.0
 11
-190.0000000000009
 21
2215.09375
 31
0.0
  0
LINE
  5
104
  8
OUTSIDE_THROUGH
 10
-190.0000000000009
 20
2215.09375
 30
0.0
 11
-170.0000000000009
 21
2215.09375
 31
0.0
  0
LINE
  5
105
  8
OUTSIDE_THROUGH
 10
-170.0000000000009
 20
2215.09375
 30
0.0
 11
-170.0000000000009
 21
2230.09375
 31
0.0
  0
LINE
  5
106
  8
OUTSIDE_THROUGH
 10
-170.0000000000009
 20
2230.09375
 30
0.0
 11
-133.0000000000009
 21
2230.09375
 31
0.0
  0
LINE
  5
107
  8
OUTSIDE_THROUGH
 10
-133.0000000000009
 20
2230.09375
 30
0.0
 11
-133.0000000000009
 21
2215.09375
 31
0.0
  0
LINE
  5
108
  8
OUTSIDE_THROUGH
 10
-133.0000000000009
 20
2215.09375
 30
0.0
 11
-113.0000000000009
 21
2215.09375
 31
0.0
  0
LINE
  5
109
  8
OUTSIDE_THROUGH
 10
-113.0000000000009
 20
2215.09375
 30
0.0
 11
-113.0000000000009
 21
2230.09375
 31
0.0
  0
LINE
  5
10A
  8
OUTSIDE_THROUGH
 10
-113.0000000000009
 20
2230.09375
 30
0.0
 11
-76.00000000000091
 21
2230.09375
 31
0.0
  0
LINE
  5
10B
  8
OUTSIDE_THROUGH
 10
-76.00000000000091
 20
2230.09375
 30
0.0
 11
-76.00000000000091
 21
2215.09375
 31
0.0
  0
LINE
  5
10C
  8
OUTSIDE_THROUGH
 10
-76.00000000000091
 20
2215.09375
 30
0.0
 11
-56.00000000000091
 21
2215.09375
 31
0.0
  0
LINE
  5
10D
  8
OUTSIDE_THROUGH
 10
-56.00000000000091
 20
2215.09375
 30
0.0
 11
-56.00000000000091
 21
2230.09375
 31
0.0
  0
LINE
  5
10E
  8
OUTSIDE_THROUGH
 10
-56.00000000000091
 20
2230.09375
 30
0.0
 11
-19.00000000000091
 21
2230.09375
 31
0.0
  0
LINE
  5
10F
  8
OUTSIDE_THROUGH
 10
-19.00000000000091
 20
2230.09375
 30
0.0
 11
-19.00000000000091
 21
2215.09375
 31
0.0
  0
LINE
  5
110
  8
OUTSIDE_THROUGH
 10
-19.00000000000091
 20
2215.09375
 30
0.0
 11
0.9999999999990905
 21
2215.09375
 31
0.0
  0
LINE
  5
111
  8
OUTSIDE_THROUGH
 10
0.9999999999990905
 20
2215.09375
 30
0.0
 11
0.9999999999990905
 21
2230.09375
 31
0.0
  0
LINE
  5
112
  8
OUTSIDE_THROUGH
 10
0.9999999999990905
 20
2230.09375
 30
0.0
 11
19.49999999999909
 21
2230.09375
 31
0.0
  0
LINE
  5
113
  8
OUTSIDE_THROUGH
 10
19.49999999999909
 20
2230.09375
 30
0.0
 11
37.99999999999909
 21
2230.09375
 31
0.0
  0
LINE
  5
114
  8
OUTSIDE_THROUGH
 10
37.99999999999909
 20
2230.09375
 30
0.0
 11
37.99999999999909
 21
2215.09375
 31
0.0
  0
LINE
  5
115
  8
OUTSIDE_THROUGH
 10
37.99999999999909
 20
2215.09375
 30
0.0
 11
57.99999999999909
 21
2215.09375
 31
0.0
  0
LINE
  5
116
  8
OUTSIDE_THROUGH
 10
57.99999999999909
 20
2215.09375
 30
0.0
 11
57.99999999999909
 21
2230.09375
 31
0.0
  0
LINE
  5
117
  8
OUTSIDE_THROUGH
 10
57.99999999999909
 20
2230.09375
 30
0.0
 11
94.99999999999909
 21
2230.09375
 31
0.0
  0
LINE
  5
118
  8
OUTSIDE_THROUGH
 10
94.99999999999909
 20
2230.09375
 30
0.0
 11
94.99999999999909
 21
2215.09375
 31
0.0
  0
LINE
  5
119
  8
OUTSIDE_THROUGH
 10
94.99999999999909
 20
2215.09375
 30
0.0
 11
114.9999999999991
 21
2215.09375
 31
0.0
  0
LINE
  5
11A
  8
OUTSIDE_THROUGH
 10
114.9999999999991
 20
2215.09375
 30
0.0
 11
114.9999999999991
 21
2230.09375
 31
0.0
  0
LINE
  5
11B
  8
OUTSIDE_THROUGH
 10
114.9999999999991
 20
2230.09375
 30
0.0
 11
151.9999999999991
 21
2230.09375
 31
0.0
  0
LINE
  5
11C
  8
OUTSIDE_THROUGH
 10
151.9999999999991
 20
2230.09375
 30
0.0
 11
151.9999999999991
 21
2215.09375
 31
0.0
  0
LINE
  5
11D
  8
OUTSIDE_THROUGH
 10
151.9999999999991
 20
2215.09375
 30
0.0
 11
171.9999999999991
 21
2215.09375
 31
0.0
  0
LINE
  5
11E
  8
OUTSIDE_THROUGH
 10
171.9999999999991
 20
2215.09375
 30
0.0
 11
171.9999999999991
 21
2230.09375
 31
0.0
  0
LINE
  5
11F
  8
OUTSIDE_THROUGH
 10
171.9999999999991
 20
2230.09375
 30
0.0
 11
208.9999999999991
 21
2230.09375
 31
0.0
  0
LINE
  5
120
  8
OUTSIDE_THROUGH
 10
208.9999999999991
 20
2230.09375
 30
0.0
 11
208.9999999999991
 21
2215.09375
 31
0.0
  0
LINE
  5
121
  8
OUTSIDE_THROUGH
 10
208.9999999999991
 20
2215.09375
 30
0.0
 11
228.9999999999991
 21
2215.09375
 31
0.0
  0
LINE
  5
122
  8
OUTSIDE_THROUGH
 10
228.9999999999991
 20
2215.09375
 30
0.0
 11
228.9999999999991
 21
2230.09375
 31
0.0
  0
LINE
  5
123
  8
OUTSIDE_THROUGH
 10
228.9999999999991
 20
2230.09375
 30
0.0
 11
346.0000000000045
 21
2230.09375
 31
0.0
  0
LINE
  5
124
  8
OUTSIDE_THROUGH
 10
346.0000000000045
 20
2230.09375
 30
0.0
 11
346.0000000000045
 21
2170.09375
 31
0.0
  0
ARC
  5
125
  8
OUTSIDE_THROUGH
 10
326.0000000000045
 20
2170.09375
 30
0.0
 40
20.0
 50
270.0
 51
0.0
  0
LINE
  5
126
  8
OUTSIDE_THROUGH
 10
326.0000000000045
 20
2150.09375
 30
0.0
 11
296.0000000000027
 21
2150.09375
 31
0.0
  0
LINE
  5
127
  8
OUTSIDE_THROUGH
 10
295.9999999999991
 20
2150.09375
 30
0.0
 11
295.9999999999991
 21
2170.09375
 31
0.0
  0
LINE
  5
128
  8
OUTSIDE_THROUGH
 10
295.9999999999991
 20
2170.09375
 30
0.0
 11
265.9999999999991
 21
2170.09375
 31
0.0
  0
LINE
  5
129
  8
OUTSIDE_THROUGH
 10
265.9999999999991
 20
2170.09375
 30
0.0
 11
265.9999999999991
 21
2150.09375
 31
0.0
  0
LINE
  5
12A
  8
OUTSIDE_THROUGH
 10
265.9999999999991
 20
2150.09375
 30
0.0
 11
219.0000000000009
 21
2150.09375
 31
0.0
  0
LINE
  5
12B
  8
OUTSIDE_THROUGH
 10
219.0000000000027
 20
2150.09375
 30
0.0
 11
216.2722765604682
 21
2150.140613555908
 31
0.0
  0
LINE
  5
12C
  8
OUTSIDE_THROUGH
 10
216.2722765604682
 20
2150.140613555908
 30
0.0
 11
213.4350484212267
 21
2150.278228759766
 31
0.0
  0
LINE
  5
12D
  8
OUTSIDE_THROUGH
 10
213.4350484212267
 20
2150.278228759766
 30
0.0
 11
210.4916038513211
 21
2150.502132415771
 31
0.0
  0
LINE
  5
12E
  8
OUTSIDE_THROUGH
 10
210.4916038513211
 20
2150.502132415771
 30
0.0
 11
207.4452311197944
 21
2150.807861328125
 31
0.0
  0
LINE
  5
12F
  8
OUTSIDE_THROUGH
 10
207.4452311197944
 20
2150.807861328125
 30
0.0
 11
204.2992184956896
 21
2151.190952301025
 31
0.0
  0
LINE
  5
130
  8
OUTSIDE_THROUGH
 10
204.2992184956896
 20
2151.190952301025
 30
0.0
 11
201.0568542480496
 21
2151.646942138672
 31
0.0
  0
LINE
  5
131
  8
OUTSIDE_THROUGH
 10
201.0568542480496
 20
2151.646942138672
 30
0.0
 11
194.2962239583361
 21
2152.759765625
 31
0.0
  0
LINE
  5
132
  8
OUTSIDE_THROUGH
 10
194.2962239583361
 20
2152.759765625
 30
0.0
 11
187.1896464029975
 21
2154.110626220703
 31
0.0
  0
LINE
  5
133
  8
OUTSIDE_THROUGH
 10
187.1896464029975
 20
2154.110626220703
 30
0.0
 11
112.0033365885445
 21
2171.088623046875
 31
0.0
  0
LINE
  5
134
  8
OUTSIDE_THROUGH
 10
112.0033365885445
 20
2171.088623046875
 30
0.0
 11
102.8841247558622
 21
2172.856048583984
 31
0.0
  0
LINE
  5
135
  8
OUTSIDE_THROUGH
 10
102.8841247558622
 20
2172.856048583984
 30
0.0
 11
93.70833333333621
 21
2174.46875
 31
0.0
  0
LINE
  5
136
  8
OUTSIDE_THROUGH
 10
93.70833333333621
 20
2174.46875
 30
0.0
 11
84.49851481120078
 21
2175.89697265625
 31
0.0
  0
LINE
  5
137
  8
OUTSIDE_THROUGH
 10
84.49851481120078
 20
2175.89697265625
 30
0.0
 11
75.26220703125284
 21
2177.134765625
 31
0.0
  0
LINE
  5
138
  8
OUTSIDE_THROUGH
 10
75.26220703125284
 20
2177.134765625
 30
0.0
 11
66.00319417317992
 21
2178.18212890625
 31
0.0
  0
LINE
  5
139
  8
OUTSIDE_THROUGH
 10
66.00319417317992
 20
2178.18212890625
 30
0.0
 11
56.72526041666948
 21
2179.0390625
 31
0.0
  0
LINE
  5
13A
  8
OUTSIDE_THROUGH
 10
56.72526041666948
 20
2179.0390625
 30
0.0
 11
47.43218994140904
 21
2179.70556640625
 31
0.0
  0
LINE
  5
13B
  8
OUTSIDE_THROUGH
 10
47.43218994140904
 20
2179.70556640625
 30
0.0
 11
38.1277669270861
 21
2180.181640625
 31
0.0
  0
LINE
  5
13C
  8
OUTSIDE_THROUGH
 10
38.1277669270861
 20
2180.181640625
 30
0.0
 11
28.81577555338816
 21
2180.46728515625
 31
0.0
  0
LINE
  5
13D
  8
OUTSIDE_THROUGH
 10
28.81577555338816
 20
2180.46728515625
 30
0.0
 11
19.50000000000273
 21
2180.5625
 31
0.0
  0
LINE
  5
13E
  8
OUTSIDE_THROUGH
 10
19.50000000000273
 20
2180.5625
 30
0.0
 11
10.18422444661729
 21
2180.46728515625
 31
0.0
  0
LINE
  5
13F
  8
OUTSIDE_THROUGH
 10
10.18422444661729
 20
2180.46728515625
 30
0.0
 11
0.8722330729193555
 21
2180.181640625
 31
0.0
  0
LINE
  5
140
  8
OUTSIDE_THROUGH
 10
0.8722330729193555
 20
2180.181640625
 30
0.0
 11
-8.432189941403582
 21
2179.70556640625
 31
0.0
  0
LINE
  5
141
  8
OUTSIDE_THROUGH
 10
-8.432189941403582
 20
2179.70556640625
 30
0.0
 11
-17.72526041666402
 21
2179.0390625
 31
0.0
  0
LINE
  5
142
  8
OUTSIDE_THROUGH
 10
-17.72526041666402
 20
2179.0390625
 30
0.0
 11
-27.00319417317446
 21
2178.18212890625
 31
0.0
  0
LINE
  5
143
  8
OUTSIDE_THROUGH
 10
-27.00319417317446
 20
2178.18212890625
 30
0.0
 11
-36.26220703124739
 21
2177.134765625
 31
0.0
  0
LINE
  5
144
  8
OUTSIDE_THROUGH
 10
-36.26220703124739
 20
2177.134765625
 30
0.0
 11
-45.49851481119532
 21
2175.89697265625
 31
0.0
  0
LINE
  5
145
  8
OUTSIDE_THROUGH
 10
-45.49851481119532
 20
2175.89697265625
 30
0.0
 11
-54.70833333333076
 21
2174.46875
 31
0.0
  0
LINE
  5
146
  8
OUTSIDE_THROUGH
 10
-54.70833333333076
 20
2174.46875
 30
0.0
 11
-63.88412475585679
 21
2172.856048583984
 31
0.0
  0
LINE
  5
147
  8
OUTSIDE_THROUGH
 10
-63.88412475585679
 20
2172.856048583984
 30
0.0
 11
-73.00333658853907
 21
2171.088623046875
 31
0.0
  0
LINE
  5
148
  8
OUTSIDE_THROUGH
 10
-73.00333658853907
 20
2171.088623046875
 30
0.0
 11
-148.1896464029921
 21
2154.110626220703
 31
0.0
  0
LINE
  5
149
  8
OUTSIDE_THROUGH
 10
-148.1896464029921
 20
2154.110626220703
 30
0.0
 11
-155.2962239583306
 21
2152.759765625
 31
0.0
  0
LINE
  5
14A
  8
OUTSIDE_THROUGH
 10
-155.2962239583306
 20
2152.759765625
 30
0.0
 11
-162.0568542480441
 21
2151.646942138672
 31
0.0
  0
LINE
  5
14B
  8
OUTSIDE_THROUGH
 10
-162.0568542480441
 20
2151.646942138672
 30
0.0
 11
-165.2992184956841
 21
2151.190952301025
 31
0.0
  0
LINE
  5
14C
  8
OUTSIDE_THROUGH
 10
-165.2992184956841
 20
2151.190952301025
 30
0.0
 11
-168.445231119789
 21
2150.807861328125
 31
0.0
  0
LINE
  5
14D
  8
OUTSIDE_THROUGH
 10
-168.445231119789
 20
2150.807861328125
 30
0.0
 11
-171.4916038513156
 21
2150.502132415771
 31
0.0
  0
LINE
  5
14E
  8
OUTSIDE_THROUGH
 10
-171.4916038513156
 20
2150.502132415771
 30
0.0
 11
-174.4350484212212
 21
2150.278228759766
 31
0.0
  0
LINE
  5
14F
  8
OUTSIDE_THROUGH
 10
-174.4350484212212
 20
2150.278228759766
 30
0.0
 11
-177.2722765604628
 21
2150.140613555908
 31
0.0
  0
LINE
  5
150
  8
OUTSIDE_THROUGH
 10
-177.2722765604628
 20
2150.140613555908
 30
0.0
 11
-179.9999999999973
 21
2150.09375
 31
0.0
  0
LINE
  5
151
  8
OUTSIDE_THROUGH
 10
-179.9999999999973
 20
2150.09375
 30
0.0
 11
-227.0000000000009
 21
2150.09375
 31
0.0
  0
LINE
  5
152
  8
OUTSIDE_THROUGH
 10
58.08444879523267
 20
2062.129180231902
 30
0.0
 11
7.806523993072005
 21
2062.129180231897
 31
0.0
  0
LINE
  5
153
  8
OUTSIDE_THROUGH
 10
7.806523993072005
 20
2062.129180231897
 30
0.0
 11
7.806523993072915
 21
2052.129180231921
 31
0.0
  0
LINE
  5
154
  8
OUTSIDE_THROUGH
 10
7.806523993072915
 20
2052.129180231921
 30
0.0
 11
-70.0731012452452
 21
2052.129180231921
 31
0.0
  0
LINE
  5
155
  8
OUTSIDE_THROUGH
 10
-70.0731012452452
 20
2052.129180231921
 30
0.0
 11
-70.17512798564564
 21
2048.618834462781
 31
0.0
  0
LINE
  5
156
  8
OUTSIDE_THROUGH
 10
-70.17512798564564
 20
2048.618834462781
 30
0.0
 11
-70.190575597237
 21
2045.193832156294
 31
0.0
  0
LINE
  5
157
  8
OUTSIDE_THROUGH
 10
-70.190575597237
 20
2045.193832156294
 30
0.0
 11
-70.11809090409544
 21
2041.852177221099
 31
0.0
  0
LINE
  5
158
  8
OUTSIDE_THROUGH
 10
-70.11809090409544
 20
2041.852177221099
 30
0.0
 11
-69.9563207302971
 21
2038.591873565833
 31
0.0
  0
LINE
  5
159
  8
OUTSIDE_THROUGH
 10
-69.9563207302971
 20
2038.591873565833
 30
0.0
 11
-69.70391189991813
 21
2035.410925099134
 31
0.0
  0
LINE
  5
15A
  8
OUTSIDE_THROUGH
 10
-69.70391189991813
 20
2035.410925099134
 30
0.0
 11
-69.35951123703467
 21
2032.307335729639
 31
0.0
  0
LINE
  5
15B
  8
OUTSIDE_THROUGH
 10
-69.35951123703467
 20
2032.307335729639
 30
0.0
 11
-68.92176556572288
 21
2029.279109365988
 31
0.0
  0
LINE
  5
15C
  8
OUTSIDE_THROUGH
 10
-68.92176556572288
 20
2029.279109365988
 30
0.0
 11
-68.66746548443017
 21
2027.792633532802
 31
0.0
  0
LINE
  5
15D
  8
OUTSIDE_THROUGH
 10
-68.66746548443017
 20
2027.792633532802
 30
0.0
 11
-68.38932171005891
 21
2026.324249916815
 31
0.0
  0
LINE
  5
15E
  8
OUTSIDE_THROUGH
 10
-68.38932171005891
 20
2026.324249916815
 30
0.0
 11
-68.08716509561864
 21
2024.873709006609
 31
0.0
  0
LINE
  5
15F
  8
OUTSIDE_THROUGH
 10
-68.08716509561864
 20
2024.873709006609
 30
0.0
 11
-67.7608264941189
 21
2023.440761290762
 31
0.0
  0
LINE
  5
160
  8
OUTSIDE_THROUGH
 10
-67.7608264941189
 20
2023.440761290762
 30
0.0
 11
-67.4101367585692
 21
2022.025157257853
 31
0.0
  0
LINE
  5
161
  8
OUTSIDE_THROUGH
 10
-67.4101367585692
 20
2022.025157257853
 30
0.0
 11
-67.03492674197904
 21
2020.626647396463
 31
0.0
  0
LINE
  5
162
  8
OUTSIDE_THROUGH
 10
-67.03492674197904
 20
2020.626647396463
 30
0.0
 11
-66.63502729735794
 21
2019.244982195172
 31
0.0
  0
LINE
  5
163
  8
OUTSIDE_THROUGH
 10
-66.63502729735794
 20
2019.244982195172
 30
0.0
 11
-66.21026927771544
 21
2017.879912142559
 31
0.0
  0
LINE
  5
164
  8
OUTSIDE_THROUGH
 10
-66.21026927771544
 20
2017.879912142559
 30
0.0
 11
-65.76048353606103
 21
2016.531187727203
 31
0.0
  0
LINE
  5
165
  8
OUTSIDE_THROUGH
 10
-65.76048353606103
 20
2016.531187727203
 30
0.0
 11
-65.28550092540425
 21
2015.198559437685
 31
0.0
  0
LINE
  5
166
  8
OUTSIDE_THROUGH
 10
-65.28550092540425
 20
2015.198559437685
 30
0.0
 11
-64.78515229875461
 21
2013.881777762585
 31
0.0
  0
LINE
  5
167
  8
OUTSIDE_THROUGH
 10
-64.78515229875461
 20
2013.881777762585
 30
0.0
 11
-64.25926850912163
 21
2012.580593190481
 31
0.0
  0
LINE
  5
168
  8
OUTSIDE_THROUGH
 10
-64.25926850912163
 20
2012.580593190481
 30
0.0
 11
-63.70768040951484
 21
2011.294756209954
 31
0.0
  0
LINE
  5
169
  8
OUTSIDE_THROUGH
 10
-63.70768040951484
 20
2011.294756209954
 30
0.0
 11
-63.13021885294374
 21
2010.024017309583
 31
0.0
  0
LINE
  5
16A
  8
OUTSIDE_THROUGH
 10
-63.13021885294374
 20
2010.024017309583
 30
0.0
 11
-62.52671469241786
 21
2008.768126977949
 31
0.0
  0
LINE
  5
16B
  8
OUTSIDE_THROUGH
 10
-62.52671469241786
 20
2008.768126977949
 30
0.0
 11
-61.89699878094672
 21
2007.52683570363
 31
0.0
  0
LINE
  5
16C
  8
OUTSIDE_THROUGH
 10
-61.89699878094672
 20
2007.52683570363
 30
0.0
 11
-61.24090197153984
 21
2006.299893975207
 31
0.0
  0
LINE
  5
16D
  8
OUTSIDE_THROUGH
 10
-61.24090197153984
 20
2006.299893975207
 30
0.0
 11
-60.55825511720673
 21
2005.087052281259
 31
0.0
  0
LINE
  5
16E
  8
OUTSIDE_THROUGH
 10
-60.55825511720673
 20
2005.087052281259
 30
0.0
 11
-59.84888907095691
 21
2003.888061110367
 31
0.0
  0
LINE
  5
16F
  8
OUTSIDE_THROUGH
 10
-59.84888907095691
 20
2003.888061110367
 30
0.0
 11
-59.1126346857999
 21
2002.702670951108
 31
0.0
  0
LINE
  5
170
  8
OUTSIDE_THROUGH
 10
-59.1126346857999
 20
2002.702670951108
 30
0.0
 11
-58.34932281474522
 21
2001.530632292065
 31
0.0
  0
LINE
  5
171
  8
OUTSIDE_THROUGH
 10
-58.34932281474522
 20
2001.530632292065
 30
0.0
 11
-57.55878431080239
 21
2000.371695621815
 31
0.0
  0
LINE
  5
172
  8
OUTSIDE_THROUGH
 10
-57.55878431080239
 20
2000.371695621815
 30
0.0
 11
-56.74085002698094
 21
1999.225611428939
 31
0.0
  0
LINE
  5
173
  8
OUTSIDE_THROUGH
 10
-56.74085002698094
 20
1999.225611428939
 30
0.0
 11
-55.89535081629037
 21
1998.092130202017
 31
0.0
  0
LINE
  5
174
  8
OUTSIDE_THROUGH
 10
-55.89535081629037
 20
1998.092130202017
 30
0.0
 11
-55.0221175317402
 21
1996.971002429629
 31
0.0
  0
LINE
  5
175
  8
OUTSIDE_THROUGH
 10
-55.0221175317402
 20
1996.971002429629
 30
0.0
 11
-54.12098102633996
 21
1995.861978600353
 31
0.0
  0
LINE
  5
176
  8
OUTSIDE_THROUGH
 10
-54.12098102633996
 20
1995.861978600353
 30
0.0
 11
-53.19177215309917
 21
1994.76480920277
 31
0.0
  0
LINE
  5
177
  8
OUTSIDE_THROUGH
 10
-53.19177215309917
 20
1994.76480920277
 30
0.0
 11
-52.23432176502733
 21
1993.67924472546
 31
0.0
  0
LINE
  5
178
  8
OUTSIDE_THROUGH
 10
-52.23432176502733
 20
1993.67924472546
 30
0.0
 11
-51.24846071513398
 21
1992.605035657002
 31
0.0
  0
LINE
  5
179
  8
OUTSIDE_THROUGH
 10
-51.24846071513398
 20
1992.605035657002
 30
0.0
 11
-50.23401985642862
 21
1991.541932485976
 31
0.0
  0
LINE
  5
17A
  8
OUTSIDE_THROUGH
 10
-50.23401985642862
 20
1991.541932485976
 30
0.0
 11
-49.19083004192079
 21
1990.489685700961
 31
0.0
  0
LINE
  5
17B
  8
OUTSIDE_THROUGH
 10
-49.19083004192079
 20
1990.489685700961
 30
0.0
 11
-48.11872212461999
 21
1989.448045790537
 31
0.0
  0
LINE
  5
17C
  8
OUTSIDE_THROUGH
 10
-48.11872212461999
 20
1989.448045790537
 30
0.0
 11
-47.01752695753575
 21
1988.416763243285
 31
0.0
  0
LINE
  5
17D
  8
OUTSIDE_THROUGH
 10
-47.01752695753575
 20
1988.416763243285
 30
0.0
 11
-45.88707539367758
 21
1987.395588547784
 31
0.0
  0
LINE
  5
17E
  8
OUTSIDE_THROUGH
 10
-45.88707539367758
 20
1987.395588547784
 30
0.0
 11
-43.53772648767754
 21
1985.382564666352
 31
0.0
  0
LINE
  5
17F
  8
OUTSIDE_THROUGH
 10
-43.53772648767754
 20
1985.382564666352
 30
0.0
 11
-41.06932223069603
 21
1983.406978054881
 31
0.0
  0
LINE
  5
180
  8
OUTSIDE_THROUGH
 10
-41.06932223069603
 20
1983.406978054881
 30
0.0
 11
-38.48050944680919
 21
1981.466832622007
 31
0.0
  0
LINE
  5
181
  8
OUTSIDE_THROUGH
 10
-38.48050944680919
 20
1981.466832622007
 30
0.0
 11
-35.76993496009318
 21
1979.560132276368
 31
0.0
  0
LINE
  5
182
  8
OUTSIDE_THROUGH
 10
-35.76993496009318
 20
1979.560132276368
 30
0.0
 11
-32.93624559462414
 21
1977.684880926602
 31
0.0
  0
LINE
  5
183
  8
OUTSIDE_THROUGH
 10
-32.93624559462414
 20
1977.684880926602
 30
0.0
 11
-29.97808817447823
 21
1975.839082481347
 31
0.0
  0
LINE
  5
184
  8
OUTSIDE_THROUGH
 10
-29.97808817447823
 20
1975.839082481347
 30
0.0
 11
-26.89410952373159
 21
1974.020740849241
 31
0.0
  0
LINE
  5
185
  8
OUTSIDE_THROUGH
 10
-26.89410952373159
 20
1974.020740849241
 30
0.0
 11
-23.68295646646038
 21
1972.227859938921
 31
0.0
  0
LINE
  5
186
  8
OUTSIDE_THROUGH
 10
-23.68295646646038
 20
1972.227859938921
 30
0.0
 11
-14.40027734320029
 21
1968.508737959928
 31
0.0
  0
LINE
  5
187
  8
OUTSIDE_THROUGH
 10
-14.40027734320029
 20
1968.508737959928
 30
0.0
 11
-8.82159437471455
 21
1982.432756644816
 31
0.0
  0
LINE
  5
188
  8
OUTSIDE_THROUGH
 10
-8.82159437471455
 20
1982.432756644816
 30
0.0
 11
9.743763871802003
 21
1974.994512686835
 31
0.0
  0
LINE
  5
189
  8
OUTSIDE_THROUGH
 10
9.743763871802003
 20
1974.994512686835
 30
0.0
 11
4.165080903314447
 21
1961.070494001948
 31
0.0
  0
LINE
  5
18A
  8
OUTSIDE_THROUGH
 10
4.165080903314447
 20
1961.070494001948
 30
0.0
 11
13.44776002657454
 21
1957.351372022957
 31
0.0
  0
LINE
  5
18B
  8
OUTSIDE_THROUGH
 10
13.44776002657454
 20
1957.351372022957
 30
0.0
 11
14.31387449106458
 21
1957.088618242171
 31
0.0
  0
LINE
  5
18C
  8
OUTSIDE_THROUGH
 10
14.31387449106458
 20
1957.088618242171
 30
0.0
 11
15.1715822429083
 21
1956.845547888913
 31
0.0
  0
LINE
  5
18D
  8
OUTSIDE_THROUGH
 10
15.1715822429083
 20
1956.845547888913
 30
0.0
 11
16.02109791461794
 21
1956.621830956045
 31
0.0
  0
LINE
  5
18E
  8
OUTSIDE_THROUGH
 10
16.02109791461794
 20
1956.621830956045
 30
0.0
 11
16.86263613870578
 21
1956.417137436431
 31
0.0
  0
LINE
  5
18F
  8
OUTSIDE_THROUGH
 10
16.86263613870578
 20
1956.417137436431
 30
0.0
 11
17.69641154768409
 21
1956.231137322935
 31
0.0
  0
LINE
  5
190
  8
OUTSIDE_THROUGH
 10
17.69641154768409
 20
1956.231137322935
 30
0.0
 11
18.52263877406513
 21
1956.06350060842
 31
0.0
  0
LINE
  5
191
  8
OUTSIDE_THROUGH
 10
18.52263877406513
 20
1956.06350060842
 30
0.0
 11
19.34153245036117
 21
1955.91389728575
 31
0.0
  0
LINE
  5
192
  8
OUTSIDE_THROUGH
 10
19.34153245036117
 20
1955.91389728575
 30
0.0
 11
20.15330720908447
 21
1955.781997347788
 31
0.0
  0
LINE
  5
193
  8
OUTSIDE_THROUGH
 10
20.15330720908447
 20
1955.781997347788
 30
0.0
 11
20.9581776827473
 21
1955.667470787398
 31
0.0
  0
LINE
  5
194
  8
OUTSIDE_THROUGH
 10
20.9581776827473
 20
1955.667470787398
 30
0.0
 11
21.75635850386193
 21
1955.569987597444
 31
0.0
  0
LINE
  5
195
  8
OUTSIDE_THROUGH
 10
21.75635850386193
 20
1955.569987597444
 30
0.0
 11
22.54806430494061
 21
1955.489217770789
 31
0.0
  0
LINE
  5
196
  8
OUTSIDE_THROUGH
 10
22.54806430494061
 20
1955.489217770789
 30
0.0
 11
23.33350971849563
 21
1955.424831300297
 31
0.0
  0
LINE
  5
197
  8
OUTSIDE_THROUGH
 10
23.33350971849563
 20
1955.424831300297
 30
0.0
 11
24.11290937703923
 21
1955.376498178831
 31
0.0
  0
LINE
  5
198
  8
OUTSIDE_THROUGH
 10
24.11290937703923
 20
1955.376498178831
 30
0.0
 11
24.8864779130837
 21
1955.343888399254
 31
0.0
  0
LINE
  5
199
  8
OUTSIDE_THROUGH
 10
24.8864779130837
 20
1955.343888399254
 30
0.0
 11
25.6544299591413
 21
1955.326671954432
 31
0.0
  0
LINE
  5
19A
  8
OUTSIDE_THROUGH
 10
25.6544299591413
 20
1955.326671954432
 30
0.0
 11
26.41698014772428
 21
1955.324518837226
 31
0.0
  0
LINE
  5
19B
  8
OUTSIDE_THROUGH
 10
26.41698014772428
 20
1955.324518837226
 30
0.0
 11
27.17434311134492
 21
1955.337099040501
 31
0.0
  0
LINE
  5
19C
  8
OUTSIDE_THROUGH
 10
27.17434311134492
 20
1955.337099040501
 30
0.0
 11
27.92673348251549
 21
1955.364082557121
 31
0.0
  0
LINE
  5
19D
  8
OUTSIDE_THROUGH
 10
27.92673348251549
 20
1955.364082557121
 30
0.0
 11
28.67436589374825
 21
1955.405139379948
 31
0.0
  0
LINE
  5
19E
  8
OUTSIDE_THROUGH
 10
28.67436589374825
 20
1955.405139379948
 30
0.0
 11
29.41745497755545
 21
1955.459939501847
 31
0.0
  0
LINE
  5
19F
  8
OUTSIDE_THROUGH
 10
29.41745497755545
 20
1955.459939501847
 30
0.0
 11
30.15621536644938
 21
1955.528152915681
 31
0.0
  0
LINE
  5
1A0
  8
OUTSIDE_THROUGH
 10
30.15621536644938
 20
1955.528152915681
 30
0.0
 11
30.8908616929423
 21
1955.609449614313
 31
0.0
  0
LINE
  5
1A1
  8
OUTSIDE_THROUGH
 10
30.8908616929423
 20
1955.609449614313
 30
0.0
 11
32.34867068877416
 21
1955.809972837428
 31
0.0
  0
LINE
  5
1A2
  8
OUTSIDE_THROUGH
 10
32.34867068877416
 20
1955.809972837428
 30
0.0
 11
33.79259902514917
 21
1956.0588691141
 31
0.0
  0
LINE
  5
1A3
  8
OUTSIDE_THROUGH
 10
33.79259902514917
 20
1956.0588691141
 30
0.0
 11
35.22436376216545
 21
1956.353498387239
 31
0.0
  0
LINE
  5
1A4
  8
OUTSIDE_THROUGH
 10
35.22436376216545
 20
1956.353498387239
 30
0.0
 11
36.64568195992112
 21
1956.691220599752
 31
0.0
  0
LINE
  5
1A5
  8
OUTSIDE_THROUGH
 10
36.64568195992112
 20
1956.691220599752
 30
0.0
 11
38.0582706785143
 21
1957.069395694549
 31
0.0
  0
LINE
  5
1A6
  8
OUTSIDE_THROUGH
 10
38.0582706785143
 20
1957.069395694549
 30
0.0
 11
39.46384697804315
 21
1957.485383614539
 31
0.0
  0
LINE
  5
1A7
  8
OUTSIDE_THROUGH
 10
39.46384697804315
 20
1957.485383614539
 30
0.0
 11
40.86412791860577
 21
1957.936544302629
 31
0.0
  0
LINE
  5
1A8
  8
OUTSIDE_THROUGH
 10
40.86412791860577
 20
1957.936544302629
 30
0.0
 11
42.26083056030031
 21
1958.420237701729
 31
0.0
  0
LINE
  5
1A9
  8
OUTSIDE_THROUGH
 10
42.26083056030031
 20
1958.420237701729
 30
0.0
 11
43.65567196322488
 21
1958.933823754747
 31
0.0
  0
LINE
  5
1AA
  8
OUTSIDE_THROUGH
 10
43.65567196322488
 20
1958.933823754747
 30
0.0
 11
46.44663929315664
 21
1960.040113594174
 31
0.0
  0
LINE
  5
1AB
  8
OUTSIDE_THROUGH
 10
46.44663929315664
 20
1960.040113594174
 30
0.0
 11
67.09566596799343
 21
1969.085766691995
 31
0.0
  0
LINE
  5
1AC
  8
OUTSIDE_THROUGH
 10
67.09566596799343
 20
1969.085766691995
 30
0.0
 11
73.60222435608554
 21
1971.604928157866
 31
0.0
  0
LINE
  5
1AD
  8
OUTSIDE_THROUGH
 10
73.60222435608554
 20
1971.604928157866
 30
0.0
 11
80.35040300424603
 21
1973.996733814514
 31
0.0
  0
LINE
  5
1AE
  8
OUTSIDE_THROUGH
 10
80.35040300424603
 20
1973.996733814514
 30
0.0
 11
87.29732770246353
 21
1976.232930463475
 31
0.0
  0
LINE
  5
1AF
  8
OUTSIDE_THROUGH
 10
87.29732770246353
 20
1976.232930463475
 30
0.0
 11
94.40012424072663
 21
1978.285264906288
 31
0.0
  0
LINE
  5
1B0
  8
OUTSIDE_THROUGH
 10
94.40012424072663
 20
1978.285264906288
 30
0.0
 11
101.6159184090239
 21
1980.125483944489
 31
0.0
  0
LINE
  5
1B1
  8
OUTSIDE_THROUGH
 10
101.6159184090239
 20
1980.125483944489
 30
0.0
 11
108.901835997344
 21
1981.725334379616
 31
0.0
  0
LINE
  5
1B2
  8
OUTSIDE_THROUGH
 10
108.901835997344
 20
1981.725334379616
 30
0.0
 11
112.557692883384
 21
1982.426292246507
 31
0.0
  0
LINE
  5
1B3
  8
OUTSIDE_THROUGH
 10
112.557692883384
 20
1982.426292246507
 30
0.0
 11
116.2150027956754
 21
1983.056563013206
 31
0.0
  0
LINE
  5
1B4
  8
OUTSIDE_THROUGH
 10
116.2150027956754
 20
1983.056563013206
 30
0.0
 11
119.8665734336963
 21
1983.612186385601
 31
0.0
  0
LINE
  5
1B5
  8
OUTSIDE_THROUGH
 10
119.8665734336963
 20
1983.612186385601
 30
0.0
 11
123.4978803998421
 21
1984.087487492372
 31
0.0
  0
LINE
  5
1B6
  8
OUTSIDE_THROUGH
 10
123.4978803998421
 20
1984.087487492372
 30
0.0
 11
127.0925662722379
 21
1984.476362817893
 31
0.0
  0
LINE
  5
1B7
  8
OUTSIDE_THROUGH
 10
127.0925662722379
 20
1984.476362817893
 30
0.0
 11
130.6342736290087
 21
1984.772708846539
 31
0.0
  0
LINE
  5
1B8
  8
OUTSIDE_THROUGH
 10
130.6342736290087
 20
1984.772708846539
 30
0.0
 11
134.1066450482795
 21
1984.970422062685
 31
0.0
  0
LINE
  5
1B9
  8
OUTSIDE_THROUGH
 10
134.1066450482795
 20
1984.970422062685
 30
0.0
 11
137.4933231081753
 21
1985.063398950705
 31
0.0
  0
LINE
  5
1BA
  8
OUTSIDE_THROUGH
 10
137.4933231081753
 20
1985.063398950705
 30
0.0
 11
140.7779503868211
 21
1985.045535994976
 31
0.0
  0
LINE
  5
1BB
  8
OUTSIDE_THROUGH
 10
140.7779503868211
 20
1985.045535994976
 30
0.0
 11
142.3768832888394
 21
1984.993132227072
 31
0.0
  0
LINE
  5
1BC
  8
OUTSIDE_THROUGH
 10
142.3768832888394
 20
1984.993132227072
 30
0.0
 11
143.944169462342
 21
1984.910729679872
 31
0.0
  0
LINE
  5
1BD
  8
OUTSIDE_THROUGH
 10
143.944169462342
 20
1984.910729679872
 30
0.0
 11
145.4777642295946
 21
1984.797565413922
 31
0.0
  0
LINE
  5
1BE
  8
OUTSIDE_THROUGH
 10
145.4777642295946
 20
1984.797565413922
 30
0.0
 11
146.9756229128628
 21
1984.652876489768
 31
0.0
  0
LINE
  5
1BF
  8
OUTSIDE_THROUGH
 10
146.9756229128628
 20
1984.652876489768
 30
0.0
 11
148.4357008344122
 21
1984.475899967958
 31
0.0
  0
LINE
  5
1C0
  8
OUTSIDE_THROUGH
 10
148.4357008344122
 20
1984.475899967958
 30
0.0
 11
149.8559533165086
 21
1984.265872909039
 31
0.0
  0
LINE
  5
1C1
  8
OUTSIDE_THROUGH
 10
149.8559533165086
 20
1984.265872909039
 30
0.0
 11
151.2343356814174
 21
1984.022032373557
 31
0.0
  0
LINE
  5
1C2
  8
OUTSIDE_THROUGH
 10
151.2343356814174
 20
1984.022032373557
 30
0.0
 11
152.5688032514044
 21
1983.74361542206
 31
0.0
  0
LINE
  5
1C3
  8
OUTSIDE_THROUGH
 10
152.5688032514044
 20
1983.74361542206
 30
0.0
 11
153.8573113487351
 21
1983.429859115093
 31
0.0
  0
LINE
  5
1C4
  8
OUTSIDE_THROUGH
 10
153.8573113487351
 20
1983.429859115093
 30
0.0
 11
154.4836916333624
 21
1983.25949028473
 31
0.0
  0
LINE
  5
1C5
  8
OUTSIDE_THROUGH
 10
154.4836916333624
 20
1983.25949028473
 30
0.0
 11
155.0978152956752
 21
1983.080000513206
 31
0.0
  0
LINE
  5
1C6
  8
OUTSIDE_THROUGH
 10
155.0978152956752
 20
1983.080000513206
 30
0.0
 11
155.6994267509568
 21
1982.891294433087
 31
0.0
  0
LINE
  5
1C7
  8
OUTSIDE_THROUGH
 10
155.6994267509568
 20
1982.891294433087
 30
0.0
 11
156.2882704144903
 21
1982.693276676942
 31
0.0
  0
LINE
  5
1C8
  8
OUTSIDE_THROUGH
 10
156.2882704144903
 20
1982.693276676942
 30
0.0
 11
156.864090701559
 21
1982.485851877341
 31
0.0
  0
LINE
  5
1C9
  8
OUTSIDE_THROUGH
 10
156.864090701559
 20
1982.485851877341
 30
0.0
 11
157.426632027446
 21
1982.268924666851
 31
0.0
  0
LINE
  5
1CA
  8
OUTSIDE_THROUGH
 10
157.426632027446
 20
1982.268924666851
 30
0.0
 11
157.9756388074346
 21
1982.042399678041
 31
0.0
  0
LINE
  5
1CB
  8
OUTSIDE_THROUGH
 10
157.9756388074346
 20
1982.042399678041
 30
0.0
 11
158.510855456808
 21
1981.806181543479
 31
0.0
  0
LINE
  5
1CC
  8
OUTSIDE_THROUGH
 10
158.510855456808
 20
1981.806181543479
 30
0.0
 11
159.0320263908494
 21
1981.560174895733
 31
0.0
  0
LINE
  5
1CD
  8
OUTSIDE_THROUGH
 10
159.0320263908494
 20
1981.560174895733
 30
0.0
 11
159.5388960248419
 21
1981.304284367372
 31
0.0
  0
LINE
  5
1CE
  8
OUTSIDE_THROUGH
 10
159.5388960248419
 20
1981.304284367372
 30
0.0
 11
160.0312087740688
 21
1981.038414590964
 31
0.0
  0
LINE
  5
1CF
  8
OUTSIDE_THROUGH
 10
160.0312087740688
 20
1981.038414590964
 30
0.0
 11
160.5087090538132
 21
1980.762470199078
 31
0.0
  0
LINE
  5
1D0
  8
OUTSIDE_THROUGH
 10
160.5087090538132
 20
1980.762470199078
 30
0.0
 11
160.9711412793585
 21
1980.476355824281
 31
0.0
  0
LINE
  5
1D1
  8
OUTSIDE_THROUGH
 10
160.9711412793585
 20
1980.476355824281
 30
0.0
 11
161.4182498659877
 21
1980.179976099143
 31
0.0
  0
LINE
  5
1D2
  8
OUTSIDE_THROUGH
 10
161.4182498659877
 20
1980.179976099143
 30
0.0
 11
161.8497792289841
 21
1979.873235656231
 31
0.0
  0
LINE
  5
1D3
  8
OUTSIDE_THROUGH
 10
161.8497792289841
 20
1979.873235656231
 30
0.0
 11
162.2654737836309
 21
1979.556039128114
 31
0.0
  0
LINE
  5
1D4
  8
OUTSIDE_THROUGH
 10
162.2654737836309
 20
1979.556039128114
 30
0.0
 11
162.4673031375992
 21
1979.393490029782
 31
0.0
  0
LINE
  5
1D5
  8
OUTSIDE_THROUGH
 10
162.4673031375992
 20
1979.393490029782
 30
0.0
 11
162.6650779452114
 21
1979.228291147361
 31
0.0
  0
LINE
  5
1D6
  8
OUTSIDE_THROUGH
 10
162.6650779452114
 20
1979.228291147361
 30
0.0
 11
162.8587662583776
 21
1979.060430559923
 31
0.0
  0
LINE
  5
1D7
  8
OUTSIDE_THROUGH
 10
162.8587662583776
 20
1979.060430559923
 30
0.0
 11
163.0483361290085
 21
1978.889896346539
 31
0.0
  0
LINE
  5
1D8
  8
OUTSIDE_THROUGH
 10
163.0483361290085
 20
1978.889896346539
 30
0.0
 11
163.2337677482694
 21
1978.716681539844
 31
0.0
  0
LINE
  5
1D9
  8
OUTSIDE_THROUGH
 10
163.2337677482694
 20
1978.716681539844
 30
0.0
 11
163.4150898643447
 21
1978.540798986734
 31
0.0
  0
LINE
  5
1DA
  8
OUTSIDE_THROUGH
 10
163.4150898643447
 20
1978.540798986734
 30
0.0
 11
163.5923433646741
 21
1978.362266487665
 31
0.0
  0
LINE
  5
1DB
  8
OUTSIDE_THROUGH
 10
163.5923433646741
 20
1978.362266487665
 30
0.0
 11
163.7655691366973
 21
1978.181101843098
 31
0.0
  0
LINE
  5
1DC
  8
OUTSIDE_THROUGH
 10
163.7655691366973
 20
1978.181101843098
 30
0.0
 11
163.9348080678536
 21
1977.997322853491
 31
0.0
  0
LINE
  5
1DD
  8
OUTSIDE_THROUGH
 10
163.9348080678536
 20
1977.997322853491
 30
0.0
 11
164.1001010455828
 21
1977.810947319302
 31
0.0
  0
LINE
  5
1DE
  8
OUTSIDE_THROUGH
 10
164.1001010455828
 20
1977.810947319302
 30
0.0
 11
164.2614889573243
 21
1977.62199304099
 31
0.0
  0
LINE
  5
1DF
  8
OUTSIDE_THROUGH
 10
164.2614889573243
 20
1977.62199304099
 30
0.0
 11
164.4190126905178
 21
1977.430477819014
 31
0.0
  0
LINE
  5
1E0
  8
OUTSIDE_THROUGH
 10
164.4190126905178
 20
1977.430477819014
 30
0.0
 11
164.5727131326028
 21
1977.236419453833
 31
0.0
  0
LINE
  5
1E1
  8
OUTSIDE_THROUGH
 10
164.5727131326028
 20
1977.236419453833
 30
0.0
 11
164.7226311710188
 21
1977.039835745906
 31
0.0
  0
LINE
  5
1E2
  8
OUTSIDE_THROUGH
 10
164.7226311710188
 20
1977.039835745906
 30
0.0
 11
164.8688076932054
 21
1976.84074449569
 31
0.0
  0
LINE
  5
1E3
  8
OUTSIDE_THROUGH
 10
164.8688076932054
 20
1976.84074449569
 30
0.0
 11
165.0112835866022
 21
1976.639163503645
 31
0.0
  0
LINE
  5
1E4
  8
OUTSIDE_THROUGH
 10
165.0112835866022
 20
1976.639163503645
 30
0.0
 11
165.1500997386488
 21
1976.435110570229
 31
0.0
  0
LINE
  5
1E5
  8
OUTSIDE_THROUGH
 10
165.1500997386488
 20
1976.435110570229
 30
0.0
 11
165.2852970367846
 21
1976.228603495901
 31
0.0
  0
LINE
  5
1E6
  8
OUTSIDE_THROUGH
 10
165.2852970367846
 20
1976.228603495901
 30
0.0
 11
165.5449986210824
 21
1975.808298126345
 31
0.0
  0
LINE
  5
1E7
  8
OUTSIDE_THROUGH
 10
165.5449986210824
 20
1975.808298126345
 30
0.0
 11
165.7907154390122
 21
1975.378389798645
 31
0.0
  0
LINE
  5
1E8
  8
OUTSIDE_THROUGH
 10
165.7907154390122
 20
1975.378389798645
 30
0.0
 11
166.0227745900903
 21
1974.939020916473
 31
0.0
  0
LINE
  5
1E9
  8
OUTSIDE_THROUGH
 10
166.0227745900903
 20
1974.939020916473
 30
0.0
 11
166.2415031738334
 21
1974.490333883496
 31
0.0
  0
LINE
  5
1EA
  8
OUTSIDE_THROUGH
 10
166.2415031738334
 20
1974.490333883496
 30
0.0
 11
166.4472282897578
 21
1974.032471103385
 31
0.0
  0
LINE
  5
1EB
  8
OUTSIDE_THROUGH
 10
166.4472282897578
 20
1974.032471103385
 30
0.0
 11
166.6402770373801
 21
1973.565574979809
 31
0.0
  0
LINE
  5
1EC
  8
OUTSIDE_THROUGH
 10
166.6402770373801
 20
1973.565574979809
 30
0.0
 11
166.8209765162169
 21
1973.089787916437
 31
0.0
  0
LINE
  5
1ED
  8
OUTSIDE_THROUGH
 10
166.8209765162169
 20
1973.089787916437
 30
0.0
 11
166.9896538257844
 21
1972.605252316941
 31
0.0
  0
LINE
  5
1EE
  8
OUTSIDE_THROUGH
 10
166.9896538257844
 20
1972.605252316941
 30
0.0
 11
167.1466360655994
 21
1972.112110584988
 31
0.0
  0
LINE
  5
1EF
  8
OUTSIDE_THROUGH
 10
167.1466360655994
 20
1972.112110584988
 30
0.0
 11
167.2922503351782
 21
1971.610505124249
 31
0.0
  0
LINE
  5
1F0
  8
OUTSIDE_THROUGH
 10
167.2922503351782
 20
1971.610505124249
 30
0.0
 11
167.4268237340373
 21
1971.100578338393
 31
0.0
  0
LINE
  5
1F1
  8
OUTSIDE_THROUGH
 10
167.4268237340373
 20
1971.100578338393
 30
0.0
 11
167.5506833616932
 21
1970.58247263109
 31
0.0
  0
LINE
  5
1F2
  8
OUTSIDE_THROUGH
 10
167.5506833616932
 20
1970.58247263109
 30
0.0
 11
167.6641563176625
 21
1970.05633040601
 31
0.0
  0
LINE
  5
1F3
  8
OUTSIDE_THROUGH
 10
167.6641563176625
 20
1970.05633040601
 30
0.0
 11
167.7675697014616
 21
1969.522294066821
 31
0.0
  0
LINE
  5
1F4
  8
OUTSIDE_THROUGH
 10
167.7675697014616
 20
1969.522294066821
 30
0.0
 11
167.8612506126069
 21
1968.980506017195
 31
0.0
  0
LINE
  5
1F5
  8
OUTSIDE_THROUGH
 10
167.8612506126069
 20
1968.980506017195
 30
0.0
 11
167.945526150615
 21
1968.4311086608
 31
0.0
  0
LINE
  5
1F6
  8
OUTSIDE_THROUGH
 10
167.945526150615
 20
1968.4311086608
 30
0.0
 11
168.0207234150025
 21
1967.874244401305
 31
0.0
  0
LINE
  5
1F7
  8
OUTSIDE_THROUGH
 10
168.0207234150025
 20
1967.874244401305
 30
0.0
 11
168.1451915209811
 21
1966.738684787697
 31
0.0
  0
LINE
  5
1F8
  8
OUTSIDE_THROUGH
 10
168.1451915209811
 20
1966.738684787697
 30
0.0
 11
168.2372717266747
 21
1965.574966405728
 31
0.0
  0
LINE
  5
1F9
  8
OUTSIDE_THROUGH
 10
168.2372717266747
 20
1965.574966405728
 30
0.0
 11
168.2995808282153
 21
1964.384228484754
 31
0.0
  0
LINE
  5
1FA
  8
OUTSIDE_THROUGH
 10
168.2995808282153
 20
1964.384228484754
 30
0.0
 11
168.3347356217347
 21
1963.167610254133
 31
0.0
  0
LINE
  5
1FB
  8
OUTSIDE_THROUGH
 10
168.3347356217347
 20
1963.167610254133
 30
0.0
 11
168.3453529033649
 21
1961.926250943221
 31
0.0
  0
LINE
  5
1FC
  8
OUTSIDE_THROUGH
 10
168.3453529033649
 20
1961.926250943221
 30
0.0
 11
168.3340494692378
 21
1960.661289781375
 31
0.0
  0
LINE
  5
1FD
  8
OUTSIDE_THROUGH
 10
168.3340494692378
 20
1960.661289781375
 30
0.0
 11
168.2561476382393
 21
1958.065118822309
 31
0.0
  0
LINE
  5
1FE
  8
OUTSIDE_THROUGH
 10
168.2561476382393
 20
1958.065118822309
 30
0.0
 11
167.5910709103376
 21
1946.964206820053
 31
0.0
  0
LINE
  5
1FF
  8
OUTSIDE_THROUGH
 10
167.5910709103376
 20
1946.964206820053
 30
0.0
 11
167.3395320708174
 21
1941.111607607294
 31
0.0
  0
LINE
  5
200
  8
OUTSIDE_THROUGH
 10
167.3395320708174
 20
1941.111607607294
 30
0.0
 11
167.3080311333682
 21
1938.142795134381
 31
0.0
  0
LINE
  5
201
  8
OUTSIDE_THROUGH
 10
167.3080311333682
 20
1938.142795134381
 30
0.0
 11
167.3262225746355
 21
1936.653575319911
 31
0.0
  0
LINE
  5
202
  8
OUTSIDE_THROUGH
 10
167.3262225746355
 20
1936.653575319911
 30
0.0
 11
167.3712793269161
 21
1935.163789940292
 31
0.0
  0
LINE
  5
203
  8
OUTSIDE_THROUGH
 10
167.3712793269161
 20
1935.163789940292
 30
0.0
 11
167.4463794184736
 21
1933.675421610665
 31
0.0
  0
LINE
  5
204
  8
OUTSIDE_THROUGH
 10
167.4463794184736
 20
1933.675421610665
 30
0.0
 11
167.5547008775721
 21
1932.190452946176
 31
0.0
  0
LINE
  5
205
  8
OUTSIDE_THROUGH
 10
167.5547008775721
 20
1932.190452946176
 30
0.0
 11
167.6994217324753
 21
1930.710866561967
 31
0.0
  0
LINE
  5
206
  8
OUTSIDE_THROUGH
 10
167.6994217324753
 20
1930.710866561967
 30
0.0
 11
167.8837200114473
 21
1929.238645073183
 31
0.0
  0
LINE
  5
207
  8
OUTSIDE_THROUGH
 10
167.8837200114473
 20
1929.238645073183
 30
0.0
 11
168.1107737427517
 21
1927.775771094967
 31
0.0
  0
LINE
  5
208
  8
OUTSIDE_THROUGH
 10
168.1107737427517
 20
1927.775771094967
 30
0.0
 11
168.3837609546526
 21
1926.324227242463
 31
0.0
  0
LINE
  5
209
  8
OUTSIDE_THROUGH
 10
168.3837609546526
 20
1926.324227242463
 30
0.0
 11
168.5384727496592
 21
1925.603323680585
 31
0.0
  0
LINE
  5
20A
  8
OUTSIDE_THROUGH
 10
168.5384727496592
 20
1925.603323680585
 30
0.0
 11
168.7058596754138
 21
1924.885996130814
 31
0.0
  0
LINE
  5
20B
  8
OUTSIDE_THROUGH
 10
168.7058596754138
 20
1924.885996130814
 30
0.0
 11
168.8863189854494
 21
1924.172492420043
 31
0.0
  0
LINE
  5
20C
  8
OUTSIDE_THROUGH
 10
168.8863189854494
 20
1924.172492420043
 30
0.0
 11
169.0802479332991
 21
1923.463060375165
 31
0.0
  0
LINE
  5
20D
  8
OUTSIDE_THROUGH
 10
169.0802479332991
 20
1923.463060375165
 30
0.0
 11
169.2880437724958
 21
1922.757947823073
 31
0.0
  0
LINE
  5
20E
  8
OUTSIDE_THROUGH
 10
169.2880437724958
 20
1922.757947823073
 30
0.0
 11
169.5101037565725
 21
1922.057402590659
 31
0.0
  0
LINE
  5
20F
  8
OUTSIDE_THROUGH
 10
169.5101037565725
 20
1922.057402590659
 30
0.0
 11
169.7468251390622
 21
1921.361672504817
 31
0.0
  0
LINE
  5
210
  8
OUTSIDE_THROUGH
 10
169.7468251390622
 20
1921.361672504817
 30
0.0
 11
169.9986051734978
 21
1920.67100539244
 31
0.0
  0
LINE
  5
211
  8
OUTSIDE_THROUGH
 10
169.9986051734978
 20
1920.67100539244
 30
0.0
 11
170.2658411134123
 21
1919.98564908042
 31
0.0
  0
LINE
  5
212
  8
OUTSIDE_THROUGH
 10
170.2658411134123
 20
1919.98564908042
 30
0.0
 11
170.5489302123389
 21
1919.305851395651
 31
0.0
  0
LINE
  5
213
  8
OUTSIDE_THROUGH
 10
170.5489302123389
 20
1919.305851395651
 30
0.0
 11
170.8482697238103
 21
1918.631860165026
 31
0.0
  0
LINE
  5
214
  8
OUTSIDE_THROUGH
 10
170.8482697238103
 20
1918.631860165026
 30
0.0
 11
171.1642569013596
 21
1917.963923215436
 31
0.0
  0
LINE
  5
215
  8
OUTSIDE_THROUGH
 10
171.1642569013596
 20
1917.963923215436
 30
0.0
 11
171.4972889985198
 21
1917.302288373777
 31
0.0
  0
LINE
  5
216
  8
OUTSIDE_THROUGH
 10
171.4972889985198
 20
1917.302288373777
 30
0.0
 11
171.8477632688239
 21
1916.64720346694
 31
0.0
  0
LINE
  5
217
  8
OUTSIDE_THROUGH
 10
171.8477632688239
 20
1916.64720346694
 30
0.0
 11
172.2160769658048
 21
1915.998916321818
 31
0.0
  0
LINE
  5
218
  8
OUTSIDE_THROUGH
 10
172.2160769658048
 20
1915.998916321818
 30
0.0
 11
172.6026273429956
 21
1915.357674765305
 31
0.0
  0
LINE
  5
219
  8
OUTSIDE_THROUGH
 10
172.6026273429956
 20
1915.357674765305
 30
0.0
 11
173.0078116539292
 21
1914.723726624293
 31
0.0
  0
LINE
  5
21A
  8
OUTSIDE_THROUGH
 10
173.0078116539292
 20
1914.723726624293
 30
0.0
 11
173.4320271521386
 21
1914.097319725675
 31
0.0
  0
LINE
  5
21B
  8
OUTSIDE_THROUGH
 10
173.4320271521386
 20
1914.097319725675
 30
0.0
 11
173.8756710911568
 21
1913.478701896344
 31
0.0
  0
LINE
  5
21C
  8
OUTSIDE_THROUGH
 10
173.8756710911568
 20
1913.478701896344
 30
0.0
 11
174.3391407245168
 21
1912.868120963194
 31
0.0
  0
LINE
  5
21D
  8
OUTSIDE_THROUGH
 10
174.3391407245168
 20
1912.868120963194
 30
0.0
 11
174.8228333057515
 21
1912.265824753117
 31
0.0
  0
LINE
  5
21E
  8
OUTSIDE_THROUGH
 10
174.8228333057515
 20
1912.265824753117
 30
0.0
 11
175.327146088394
 21
1911.672061093006
 31
0.0
  0
LINE
  5
21F
  8
OUTSIDE_THROUGH
 10
175.327146088394
 20
1911.672061093006
 30
0.0
 11
175.8524763259772
 21
1911.087077809754
 31
0.0
  0
LINE
  5
220
  8
OUTSIDE_THROUGH
 10
175.8524763259772
 20
1911.087077809754
 30
0.0
 11
176.3992212720341
 21
1910.511122730255
 31
0.0
  0
LINE
  5
221
  8
OUTSIDE_THROUGH
 10
176.3992212720341
 20
1910.511122730255
 30
0.0
 11
176.9677781800977
 21
1909.9444436814
 31
0.0
  0
LINE
  5
222
  8
OUTSIDE_THROUGH
 10
176.9677781800977
 20
1909.9444436814
 30
0.0
 11
177.558544303701
 21
1909.387288490083
 31
0.0
  0
LINE
  5
223
  8
OUTSIDE_THROUGH
 10
177.558544303701
 20
1909.387288490083
 30
0.0
 11
178.171916896377
 21
1908.839904983198
 31
0.0
  0
LINE
  5
224
  8
OUTSIDE_THROUGH
 10
178.171916896377
 20
1908.839904983198
 30
0.0
 11
178.8082932116586
 21
1908.302540987636
 31
0.0
  0
LINE
  5
225
  8
OUTSIDE_THROUGH
 10
178.8082932116586
 20
1908.302540987636
 30
0.0
 11
179.4680705030788
 21
1907.775444330292
 31
0.0
  0
LINE
  5
226
  8
OUTSIDE_THROUGH
 10
179.4680705030788
 20
1907.775444330292
 30
0.0
 11
180.1516460241707
 21
1907.258862838057
 31
0.0
  0
LINE
  5
227
  8
OUTSIDE_THROUGH
 10
180.1516460241707
 20
1907.258862838057
 30
0.0
 11
180.8594170284672
 21
1906.753044337825
 31
0.0
  0
LINE
  5
228
  8
OUTSIDE_THROUGH
 10
180.8594170284672
 20
1906.753044337825
 30
0.0
 11
181.5917807695013
 21
1906.258236656488
 31
0.0
  0
LINE
  5
229
  8
OUTSIDE_THROUGH
 10
181.5917807695013
 20
1906.258236656488
 30
0.0
 11
182.3491345008059
 21
1905.774687620941
 31
0.0
  0
LINE
  5
22A
  8
OUTSIDE_THROUGH
 10
182.3491345008059
 20
1905.774687620941
 30
0.0
 11
183.1318754759141
 21
1905.302645058075
 31
0.0
  0
LINE
  5
22B
  8
OUTSIDE_THROUGH
 10
183.1318754759141
 20
1905.302645058075
 30
0.0
 11
183.9404009483589
 21
1904.842356794784
 31
0.0
  0
LINE
  5
22C
  8
OUTSIDE_THROUGH
 10
183.9404009483589
 20
1904.842356794784
 30
0.0
 11
184.7751081716732
 21
1904.39407065796
 31
0.0
  0
LINE
  5
22D
  8
OUTSIDE_THROUGH
 10
184.7751081716732
 20
1904.39407065796
 30
0.0
 11
185.6363943993899
 21
1903.958034474497
 31
0.0
  0
LINE
  5
22E
  8
OUTSIDE_THROUGH
 10
185.6363943993899
 20
1903.958034474497
 30
0.0
 11
186.5246568850422
 21
1903.534496071288
 31
0.0
  0
LINE
  5
22F
  8
OUTSIDE_THROUGH
 10
186.5246568850422
 20
1903.534496071288
 30
0.0
 11
187.440292882163
 21
1903.123703275226
 31
0.0
  0
LINE
  5
230
  8
OUTSIDE_THROUGH
 10
187.440292882163
 20
1903.123703275226
 30
0.0
 11
188.3836996442852
 21
1902.725903913202
 31
0.0
  0
LINE
  5
231
  8
OUTSIDE_THROUGH
 10
188.3836996442852
 20
1902.725903913202
 30
0.0
 11
189.3552744249419
 21
1902.341345812112
 31
0.0
  0
LINE
  5
232
  8
OUTSIDE_THROUGH
 10
189.3552744249419
 20
1902.341345812112
 30
0.0
 11
190.355414477666
 21
1901.970276798846
 31
0.0
  0
LINE
  5
233
  8
OUTSIDE_THROUGH
 10
190.355414477666
 20
1901.970276798846
 30
0.0
 11
191.3845170559906
 21
1901.612944700299
 31
0.0
  0
LINE
  5
234
  8
OUTSIDE_THROUGH
 10
191.3845170559906
 20
1901.612944700299
 30
0.0
 11
192.4429794134485
 21
1901.269597343364
 31
0.0
  0
LINE
  5
235
  8
OUTSIDE_THROUGH
 10
192.4429794134485
 20
1901.269597343364
 30
0.0
 11
202.0813154061561
 21
1898.604549634283
 31
0.0
  0
LINE
  5
236
  8
OUTSIDE_THROUGH
 10
202.0813154061561
 20
1898.604549634283
 30
0.0
 11
207.4048191192305
 21
1917.857382245951
 31
0.0
  0
LINE
  5
237
  8
OUTSIDE_THROUGH
 10
207.4048191192305
 20
1917.857382245951
 30
0.0
 11
226.6814911046458
 21
1912.52728682779
 31
0.0
  0
LINE
  5
238
  8
OUTSIDE_THROUGH
 10
226.6814911046458
 20
1912.52728682779
 30
0.0
 11
221.3579873915714
 21
1893.274454216124
 31
0.0
  0
LINE
  5
239
  8
OUTSIDE_THROUGH
 10
221.3579873915714
 20
1893.274454216124
 30
0.0
 11
230.9963233842791
 21
1890.609406507041
 31
0.0
  0
ARC
  5
23A
  8
OUTSIDE_THROUGH
 10
236.3264188024405
 20
1909.886078492456
 30
0.0
 40
20.0
 50
254.5436142796001
 51
344.5436142796
  0
LINE
  5
23B
  8
OUTSIDE_THROUGH
 10
255.6030907878558
 20
1904.555983074297
 30
0.0
 11
255.7978108795003
 21
1905.286488738543
 31
0.0
  0
LINE
  5
23C
  8
OUTSIDE_THROUGH
 10
255.7978108795003
 20
1905.286488738543
 30
0.0
 11
255.9774562161468
 21
1906.014387108988
 31
0.0
  0
LINE
  5
23D
  8
OUTSIDE_THROUGH
 10
255.9774562161468
 20
1906.014387108988
 30
0.0
 11
256.1423211111622
 21
1906.739750544775
 31
0.0
  0
LINE
  5
23E
  8
OUTSIDE_THROUGH
 10
256.1423211111622
 20
1906.739750544775
 30
0.0
 11
256.2926998779135
 21
1907.462651405049
 31
0.0
  0
LINE
  5
23F
  8
OUTSIDE_THROUGH
 10
256.2926998779135
 20
1907.462651405049
 30
0.0
 11
256.4288868297674
 21
1908.183162048952
 31
0.0
  0
LINE
  5
240
  8
OUTSIDE_THROUGH
 10
256.4288868297674
 20
1908.183162048952
 30
0.0
 11
256.551176280091
 21
1908.901354835629
 31
0.0
  0
LINE
  5
241
  8
OUTSIDE_THROUGH
 10
256.551176280091
 20
1908.901354835629
 30
0.0
 11
256.6598625422511
 21
1909.617302124223
 31
0.0
  0
LINE
  5
242
  8
OUTSIDE_THROUGH
 10
256.6598625422511
 20
1909.617302124223
 30
0.0
 11
256.7552399296147
 21
1910.331076273878
 31
0.0
  0
LINE
  5
243
  8
OUTSIDE_THROUGH
 10
256.7552399296147
 20
1910.331076273878
 30
0.0
 11
256.9072453334198
 21
1911.752394592947
 31
0.0
  0
LINE
  5
244
  8
OUTSIDE_THROUGH
 10
256.9072453334198
 20
1911.752394592947
 30
0.0
 11
257.0095469984415
 21
1913.165888665986
 31
0.0
  0
LINE
  5
245
  8
OUTSIDE_THROUGH
 10
257.0095469984415
 20
1913.165888665986
 30
0.0
 11
257.0644994316152
 21
1914.572137366143
 31
0.0
  0
LINE
  5
246
  8
OUTSIDE_THROUGH
 10
257.0644994316152
 20
1914.572137366143
 30
0.0
 11
257.0744571398761
 21
1915.97171956657
 31
0.0
  0
LINE
  5
247
  8
OUTSIDE_THROUGH
 10
257.0744571398761
 20
1915.97171956657
 30
0.0
 11
257.0417746301596
 21
1917.365214140415
 31
0.0
  0
LINE
  5
248
  8
OUTSIDE_THROUGH
 10
257.0417746301596
 20
1917.365214140415
 30
0.0
 11
256.9688064094007
 21
1918.753199960829
 31
0.0
  0
LINE
  5
249
  8
OUTSIDE_THROUGH
 10
256.9688064094007
 20
1918.753199960829
 30
0.0
 11
256.8579069845349
 21
1920.136255900962
 31
0.0
  0
LINE
  5
24A
  8
OUTSIDE_THROUGH
 10
256.8579069845349
 20
1920.136255900962
 30
0.0
 11
256.7114308624973
 21
1921.514960833964
 31
0.0
  0
LINE
  5
24B
  8
OUTSIDE_THROUGH
 10
256.7114308624973
 20
1921.514960833964
 30
0.0
 11
256.5317325502233
 21
1922.889893632984
 31
0.0
  0
LINE
  5
24C
  8
OUTSIDE_THROUGH
 10
256.5317325502233
 20
1922.889893632984
 30
0.0
 11
256.3211665546481
 21
1924.261633171173
 31
0.0
  0
LINE
  5
24D
  8
OUTSIDE_THROUGH
 10
256.3211665546481
 20
1924.261633171173
 30
0.0
 11
256.082087382707
 21
1925.630758321681
 31
0.0
  0
LINE
  5
24E
  8
OUTSIDE_THROUGH
 10
256.082087382707
 20
1925.630758321681
 30
0.0
 11
255.8168495413353
 21
1926.997847957656
 31
0.0
  0
LINE
  5
24F
  8
OUTSIDE_THROUGH
 10
255.8168495413353
 20
1926.997847957656
 30
0.0
 11
255.2173158780409
 21
1929.728236178612
 31
0.0
  0
LINE
  5
250
  8
OUTSIDE_THROUGH
 10
255.2173158780409
 20
1929.728236178612
 30
0.0
 11
254.5414016202472
 21
1932.457428819239
 31
0.0
  0
LINE
  5
251
  8
OUTSIDE_THROUGH
 10
254.5414016202472
 20
1932.457428819239
 30
0.0
 11
249.9367426959974
 21
1949.066812647271
 31
0.0
  0
LINE
  5
252
  8
OUTSIDE_THROUGH
 10
249.9367426959974
 20
1949.066812647271
 30
0.0
 11
249.2513676930251
 21
1951.915293923038
 31
0.0
  0
LINE
  5
253
  8
OUTSIDE_THROUGH
 10
249.2513676930251
 20
1951.915293923038
 30
0.0
 11
248.6270637163146
 21
1954.787568171222
 31
0.0
  0
LINE
  5
254
  8
OUTSIDE_THROUGH
 10
248.6270637163146
 20
1954.787568171222
 30
0.0
 11
248.0694299982518
 21
1957.676207048171
 31
0.0
  0
LINE
  5
255
  8
OUTSIDE_THROUGH
 10
248.0694299982518
 20
1957.676207048171
 30
0.0
 11
247.584065771223
 21
1960.573782210234
 31
0.0
  0
LINE
  5
256
  8
OUTSIDE_THROUGH
 10
247.584065771223
 20
1960.573782210234
 30
0.0
 11
247.1765702676142
 21
1963.472865313762
 31
0.0
  0
LINE
  5
257
  8
OUTSIDE_THROUGH
 10
247.1765702676142
 20
1963.472865313762
 30
0.0
 11
246.8525427198115
 21
1966.366028015103
 31
0.0
  0
LINE
  5
258
  8
OUTSIDE_THROUGH
 10
246.8525427198115
 20
1966.366028015103
 30
0.0
 11
246.6175823602011
 21
1969.245841970608
 31
0.0
  0
LINE
  5
259
  8
OUTSIDE_THROUGH
 10
246.6175823602011
 20
1969.245841970608
 30
0.0
 11
246.4772884211691
 21
1972.104878836624
 31
0.0
  0
LINE
  5
25A
  8
OUTSIDE_THROUGH
 10
246.4772884211691
 20
1972.104878836624
 30
0.0
 11
246.4443911194906
 21
1973.524284503684
 31
0.0
  0
LINE
  5
25B
  8
OUTSIDE_THROUGH
 10
246.4443911194906
 20
1973.524284503684
 30
0.0
 11
246.4372601351016
 21
1974.935710269503
 31
0.0
  0
LINE
  5
25C
  8
OUTSIDE_THROUGH
 10
246.4372601351016
 20
1974.935710269503
 30
0.0
 11
246.4565953720501
 21
1976.338227591125
 31
0.0
  0
LINE
  5
25D
  8
OUTSIDE_THROUGH
 10
246.4565953720501
 20
1976.338227591125
 30
0.0
 11
246.5030967343846
 21
1977.730907925593
 31
0.0
  0
LINE
  5
25E
  8
OUTSIDE_THROUGH
 10
246.5030967343846
 20
1977.730907925593
 30
0.0
 11
246.5774641261532
 21
1979.112822729952
 31
0.0
  0
LINE
  5
25F
  8
OUTSIDE_THROUGH
 10
246.5774641261532
 20
1979.112822729952
 30
0.0
 11
246.6803974514043
 21
1980.483043461244
 31
0.0
  0
LINE
  5
260
  8
OUTSIDE_THROUGH
 10
246.6803974514043
 20
1980.483043461244
 30
0.0
 11
246.8125966141861
 21
1981.840641576514
 31
0.0
  0
LINE
  5
261
  8
OUTSIDE_THROUGH
 10
246.8125966141861
 20
1981.840641576514
 30
0.0
 11
246.9747615185469
 21
1983.184688532805
 31
0.0
  0
LINE
  5
262
  8
OUTSIDE_THROUGH
 10
246.9747615185469
 20
1983.184688532805
 30
0.0
 11
247.1675920685349
 21
1984.51425578716
 31
0.0
  0
LINE
  5
263
  8
OUTSIDE_THROUGH
 10
247.1675920685349
 20
1984.51425578716
 30
0.0
 11
247.3917881681983
 21
1985.828414796625
 31
0.0
  0
LINE
  5
264
  8
OUTSIDE_THROUGH
 10
247.3917881681983
 20
1985.828414796625
 30
0.0
 11
247.6480497215856
 21
1987.126237018242
 31
0.0
  0
LINE
  5
265
  8
OUTSIDE_THROUGH
 10
247.6480497215856
 20
1987.126237018242
 30
0.0
 11
247.9370766327448
 21
1988.406793909055
 31
0.0
  0
LINE
  5
266
  8
OUTSIDE_THROUGH
 10
247.9370766327448
 20
1988.406793909055
 30
0.0
 11
248.2595688057244
 21
1989.669156926107
 31
0.0
  0
LINE
  5
267
  8
OUTSIDE_THROUGH
 10
248.2595688057244
 20
1989.669156926107
 30
0.0
 11
248.6162261445725
 21
1990.912397526442
 31
0.0
  0
LINE
  5
268
  8
OUTSIDE_THROUGH
 10
248.6162261445725
 20
1990.912397526442
 30
0.0
 11
249.0077485533374
 21
1992.135587167105
 31
0.0
  0
LINE
  5
269
  8
OUTSIDE_THROUGH
 10
249.0077485533374
 20
1992.135587167105
 30
0.0
 11
249.4348359360674
 21
1993.337797305138
 31
0.0
  0
LINE
  5
26A
  8
OUTSIDE_THROUGH
 10
249.4348359360674
 20
1993.337797305138
 30
0.0
 11
249.8980692142189
 21
1994.518233214377
 31
0.0
  0
LINE
  5
26B
  8
OUTSIDE_THROUGH
 10
249.8980692142189
 20
1994.518233214377
 30
0.0
 11
250.3975533788809
 21
1995.676635435822
 31
0.0
  0
LINE
  5
26C
  8
OUTSIDE_THROUGH
 10
250.3975533788809
 20
1995.676635435822
 30
0.0
 11
250.9332744385504
 21
1996.812878327266
 31
0.0
  0
LINE
  5
26D
  8
OUTSIDE_THROUGH
 10
250.9332744385504
 20
1996.812878327266
 30
0.0
 11
251.5052184017245
 21
1997.9268362465
 31
0.0
  0
LINE
  5
26E
  8
OUTSIDE_THROUGH
 10
251.5052184017245
 20
1997.9268362465
 30
0.0
 11
252.1133712769004
 21
1999.018383551317
 31
0.0
  0
LINE
  5
26F
  8
OUTSIDE_THROUGH
 10
252.1133712769004
 20
1999.018383551317
 30
0.0
 11
252.7577190725752
 21
2000.087394599508
 31
0.0
  0
LINE
  5
270
  8
OUTSIDE_THROUGH
 10
252.7577190725752
 20
2000.087394599508
 30
0.0
 11
253.4382477972459
 21
2001.133743748866
 31
0.0
  0
LINE
  5
271
  8
OUTSIDE_THROUGH
 10
253.4382477972459
 20
2001.133743748866
 30
0.0
 11
254.1549434594097
 21
2002.157305357182
 31
0.0
  0
LINE
  5
272
  8
OUTSIDE_THROUGH
 10
254.1549434594097
 20
2002.157305357182
 30
0.0
 11
254.9077920675637
 21
2003.157953782248
 31
0.0
  0
LINE
  5
273
  8
OUTSIDE_THROUGH
 10
254.9077920675637
 20
2003.157953782248
 30
0.0
 11
255.696779630205
 21
2004.135563381858
 31
0.0
  0
LINE
  5
274
  8
OUTSIDE_THROUGH
 10
255.696779630205
 20
2004.135563381858
 30
0.0
 11
256.5218921558306
 21
2005.090008513802
 31
0.0
  0
LINE
  5
275
  8
OUTSIDE_THROUGH
 10
256.5218921558306
 20
2005.090008513802
 30
0.0
 11
257.3831156529378
 21
2006.021163535874
 31
0.0
  0
LINE
  5
276
  8
OUTSIDE_THROUGH
 10
257.3831156529378
 20
2006.021163535874
 30
0.0
 11
258.2804361300236
 21
2006.928902805864
 31
0.0
  0
LINE
  5
277
  8
OUTSIDE_THROUGH
 10
258.2804361300236
 20
2006.928902805864
 30
0.0
 11
259.2138395955851
 21
2007.813100681564
 31
0.0
  0
LINE
  5
278
  8
OUTSIDE_THROUGH
 10
259.2138395955851
 20
2007.813100681564
 30
0.0
 11
260.1833120581193
 21
2008.673631520768
 31
0.0
  0
LINE
  5
279
  8
OUTSIDE_THROUGH
 10
260.1833120581193
 20
2008.673631520768
 30
0.0
 11
261.1888395261235
 21
2009.510369681267
 31
0.0
  0
LINE
  5
27A
  8
OUTSIDE_THROUGH
 10
261.1888395261235
 20
2009.510369681267
 30
0.0
 11
262.2304080080947
 21
2010.323189520852
 31
0.0
  0
LINE
  5
27B
  8
OUTSIDE_THROUGH
 10
262.2304080080947
 20
2010.323189520852
 30
0.0
 11
263.30800351253
 21
2011.111965397317
 31
0.0
  0
LINE
  5
27C
  8
OUTSIDE_THROUGH
 10
263.30800351253
 20
2011.111965397317
 30
0.0
 11
264.4216120479266
 21
2011.876571668452
 31
0.0
  0
LINE
  5
27D
  8
OUTSIDE_THROUGH
 10
264.4216120479266
 20
2011.876571668452
 30
0.0
 11
265.5712196227815
 21
2012.616882692051
 31
0.0
  0
LINE
  5
27E
  8
OUTSIDE_THROUGH
 10
265.5712196227815
 20
2012.616882692051
 30
0.0
 11
266.7568122455918
 21
2013.332772825905
 31
0.0
  0
LINE
  5
27F
  8
OUTSIDE_THROUGH
 10
266.7568122455918
 20
2013.332772825905
 30
0.0
 11
267.9783759248547
 21
2014.024116427806
 31
0.0
  0
LINE
  5
280
  8
OUTSIDE_THROUGH
 10
267.9783759248547
 20
2014.024116427806
 30
0.0
 11
269.2358966690673
 21
2014.690787855547
 31
0.0
  0
LINE
  5
281
  8
OUTSIDE_THROUGH
 10
269.2358966690673
 20
2014.690787855547
 30
0.0
 11
270.5293604867266
 21
2015.332661466918
 31
0.0
  0
LINE
  5
282
  8
OUTSIDE_THROUGH
 10
270.5293604867266
 20
2015.332661466918
 30
0.0
 11
271.8587533863297
 21
2015.949611619713
 31
0.0
  0
LINE
  5
283
  8
OUTSIDE_THROUGH
 10
271.8587533863297
 20
2015.949611619713
 30
0.0
 11
273.2240613763738
 21
2016.541512671723
 31
0.0
  0
LINE
  5
284
  8
OUTSIDE_THROUGH
 10
273.2240613763738
 20
2016.541512671723
 30
0.0
 11
274.625270465356
 21
2017.108238980741
 31
0.0
  0
LINE
  5
285
  8
OUTSIDE_THROUGH
 10
274.625270465356
 20
2017.108238980741
 30
0.0
 11
276.0623666617734
 21
2017.649664904558
 31
0.0
  0
LINE
  5
286
  8
OUTSIDE_THROUGH
 10
276.0623666617734
 20
2017.649664904558
 30
0.0
 11
277.535335974123
 21
2018.165664800966
 31
0.0
  0
LINE
  5
287
  8
OUTSIDE_THROUGH
 10
277.535335974123
 20
2018.165664800966
 30
0.0
 11
279.044164410902
 21
2018.656113027758
 31
0.0
  0
LINE
  5
288
  8
OUTSIDE_THROUGH
 10
279.044164410902
 20
2018.656113027758
 30
0.0
 11
280.5888379806075
 21
2019.120883942725
 31
0.0
  0
LINE
  5
289
  8
OUTSIDE_THROUGH
 10
280.5888379806075
 20
2019.120883942725
 30
0.0
 11
282.1693426917365
 21
2019.559851903661
 31
0.0
  0
LINE
  5
28A
  8
OUTSIDE_THROUGH
 10
282.1693426917365
 20
2019.559851903661
 30
0.0
 11
285.4306435159284
 21
2020.367908171037
 31
0.0
  0
LINE
  5
28B
  8
OUTSIDE_THROUGH
 10
285.4306435159284
 20
2020.367908171037
 30
0.0
 11
295.6442748868458
 21
2022.641645872893
 31
0.0
  0
LINE
  5
28C
  8
OUTSIDE_THROUGH
 10
295.6442748868458
 20
2022.641645872893
 30
0.0
 11
299.0487674100136
 21
2023.506699809918
 31
0.0
  0
LINE
  5
28D
  8
OUTSIDE_THROUGH
 10
299.0487674100136
 20
2023.506699809918
 30
0.0
 11
300.726823157148
 21
2023.98585764079
 31
0.0
  0
LINE
  5
28E
  8
OUTSIDE_THROUGH
 10
300.726823157148
 20
2023.98585764079
 30
0.0
 11
302.3815871829867
 21
2024.503966966728
 31
0.0
  0
LINE
  5
28F
  8
OUTSIDE_THROUGH
 10
302.3815871829867
 20
2024.503966966728
 30
0.0
 11
304.0076859537828
 21
2025.06692597785
 31
0.0
  0
LINE
  5
290
  8
OUTSIDE_THROUGH
 10
304.0076859537828
 20
2025.06692597785
 30
0.0
 11
304.8083066392439
 21
2025.367067299767
 31
0.0
  0
LINE
  5
291
  8
OUTSIDE_THROUGH
 10
304.8083066392439
 20
2025.367067299767
 30
0.0
 11
305.5997459357894
 21
2025.680632864274
 31
0.0
  0
LINE
  5
292
  8
OUTSIDE_THROUGH
 10
305.5997459357894
 20
2025.680632864274
 30
0.0
 11
306.3813321517007
 21
2026.008359945136
 31
0.0
  0
LINE
  5
293
  8
OUTSIDE_THROUGH
 10
306.3813321517007
 20
2026.008359945136
 30
0.0
 11
307.1523935952595
 21
2026.350985816119
 31
0.0
  0
LINE
  5
294
  8
OUTSIDE_THROUGH
 10
307.1523935952595
 20
2026.350985816119
 30
0.0
 11
307.9122585747475
 21
2026.709247750986
 31
0.0
  0
LINE
  5
295
  8
OUTSIDE_THROUGH
 10
307.9122585747475
 20
2026.709247750986
 30
0.0
 11
308.6602553984462
 21
2027.083883023504
 31
0.0
  0
LINE
  5
296
  8
OUTSIDE_THROUGH
 10
308.6602553984462
 20
2027.083883023504
 30
0.0
 11
309.3957123746374
 21
2027.475628907436
 31
0.0
  0
LINE
  5
297
  8
OUTSIDE_THROUGH
 10
309.3957123746374
 20
2027.475628907436
 30
0.0
 11
310.1179578116026
 21
2027.885222676548
 31
0.0
  0
LINE
  5
298
  8
OUTSIDE_THROUGH
 10
310.1179578116026
 20
2027.885222676548
 30
0.0
 11
310.8263200176235
 21
2028.313401604603
 31
0.0
  0
LINE
  5
299
  8
OUTSIDE_THROUGH
 10
310.8263200176235
 20
2028.313401604603
 30
0.0
 11
311.5201273009817
 21
2028.760902965368
 31
0.0
  0
LINE
  5
29A
  8
OUTSIDE_THROUGH
 10
311.5201273009817
 20
2028.760902965368
 30
0.0
 11
312.1987079699588
 21
2029.228464032607
 31
0.0
  0
LINE
  5
29B
  8
OUTSIDE_THROUGH
 10
312.1987079699588
 20
2029.228464032607
 30
0.0
 11
312.8613903328365
 21
2029.716822080085
 31
0.0
  0
LINE
  5
29C
  8
OUTSIDE_THROUGH
 10
312.8613903328365
 20
2029.716822080085
 30
0.0
 11
313.5075026978965
 21
2030.226714381566
 31
0.0
  0
LINE
  5
29D
  8
OUTSIDE_THROUGH
 10
313.5075026978965
 20
2030.226714381566
 30
0.0
 11
314.1363733734203
 21
2030.758878210816
 31
0.0
  0
LINE
  5
29E
  8
OUTSIDE_THROUGH
 10
314.1363733734203
 20
2030.758878210816
 30
0.0
 11
314.4441331739441
 21
2031.033542346405
 31
0.0
  0
LINE
  5
29F
  8
OUTSIDE_THROUGH
 10
314.4441331739441
 20
2031.033542346405
 30
0.0
 11
314.7473306676895
 21
2031.314050841599
 31
0.0
  0
LINE
  5
2A0
  8
OUTSIDE_THROUGH
 10
314.7473306676895
 20
2031.314050841599
 30
0.0
 11
315.0458818931917
 21
2031.600495855617
 31
0.0
  0
LINE
  5
2A1
  8
OUTSIDE_THROUGH
 10
315.0458818931917
 20
2031.600495855617
 30
0.0
 11
315.3397028889859
 21
2031.89296954768
 31
0.0
  0
LINE
  5
2A2
  8
OUTSIDE_THROUGH
 10
315.3397028889859
 20
2031.89296954768
 30
0.0
 11
315.6287096936073
 21
2032.191564077009
 31
0.0
  0
LINE
  5
2A3
  8
OUTSIDE_THROUGH
 10
315.6287096936073
 20
2032.191564077009
 30
0.0
 11
315.9128183455911
 21
2032.496371602824
 31
0.0
  0
LINE
  5
2A4
  8
OUTSIDE_THROUGH
 10
315.9128183455911
 20
2032.496371602824
 30
0.0
 11
316.1919448834723
 21
2032.807484284346
 31
0.0
  0
LINE
  5
2A5
  8
OUTSIDE_THROUGH
 10
316.1919448834723
 20
2032.807484284346
 30
0.0
 11
316.4660053457865
 21
2033.124994280796
 31
0.0
  0
LINE
  5
2A6
  8
OUTSIDE_THROUGH
 10
316.4660053457865
 20
2033.124994280796
 30
0.0
 11
316.7349157710686
 21
2033.448993751394
 31
0.0
  0
LINE
  5
2A7
  8
OUTSIDE_THROUGH
 10
316.7349157710686
 20
2033.448993751394
 30
0.0
 11
316.9985921978539
 21
2033.779574855361
 31
0.0
  0
LINE
  5
2A8
  8
OUTSIDE_THROUGH
 10
316.9985921978539
 20
2033.779574855361
 30
0.0
 11
317.2569506646776
 21
2034.116829751917
 31
0.0
  0
LINE
  5
2A9
  8
OUTSIDE_THROUGH
 10
317.2569506646776
 20
2034.116829751917
 30
0.0
 11
317.509907210075
 21
2034.460850600283
 31
0.0
  0
LINE
  5
2AA
  8
OUTSIDE_THROUGH
 10
317.509907210075
 20
2034.460850600283
 30
0.0
 11
317.7573778725812
 21
2034.811729559679
 31
0.0
  0
LINE
  5
2AB
  8
OUTSIDE_THROUGH
 10
317.7573778725812
 20
2034.811729559679
 30
0.0
 11
317.9992786907314
 21
2035.169558789327
 31
0.0
  0
LINE
  5
2AC
  8
OUTSIDE_THROUGH
 10
317.9992786907314
 20
2035.169558789327
 30
0.0
 11
318.2355257030608
 21
2035.534430448447
 31
0.0
  0
LINE
  5
2AD
  8
OUTSIDE_THROUGH
 10
318.2355257030608
 20
2035.534430448447
 30
0.0
 11
318.4660349481047
 21
2035.906436696259
 31
0.0
  0
LINE
  5
2AE
  8
OUTSIDE_THROUGH
 10
318.4660349481047
 20
2035.906436696259
 30
0.0
 11
318.6907224643982
 21
2036.285669691984
 31
0.0
  0
LINE
  5
2AF
  8
OUTSIDE_THROUGH
 10
318.6907224643982
 20
2036.285669691984
 30
0.0
 11
318.9095042904765
 21
2036.672221594842
 31
0.0
  0
LINE
  5
2B0
  8
OUTSIDE_THROUGH
 10
318.9095042904765
 20
2036.672221594842
 30
0.0
 11
319.1222964648749
 21
2037.066184564055
 31
0.0
  0
LINE
  5
2B1
  8
OUTSIDE_THROUGH
 10
319.1222964648749
 20
2037.066184564055
 30
0.0
 11
319.3290150261285
 21
2037.467650758843
 31
0.0
  0
LINE
  5
2B2
  8
OUTSIDE_THROUGH
 10
319.3290150261285
 20
2037.467650758843
 30
0.0
 11
319.5295760127725
 21
2037.876712338426
 31
0.0
  0
LINE
  5
2B3
  8
OUTSIDE_THROUGH
 10
319.5295760127725
 20
2037.876712338426
 30
0.0
 11
319.7238954633423
 21
2038.293461462025
 31
0.0
  0
LINE
  5
2B4
  8
OUTSIDE_THROUGH
 10
319.7238954633423
 20
2038.293461462025
 30
0.0
 11
319.9118894163729
 21
2038.71799028886
 31
0.0
  0
LINE
  5
2B5
  8
OUTSIDE_THROUGH
 10
319.9118894163729
 20
2038.71799028886
 30
0.0
 11
320.0934739103995
 21
2039.150390978153
 31
0.0
  0
LINE
  5
2B6
  8
OUTSIDE_THROUGH
 10
320.0934739103995
 20
2039.150390978153
 30
0.0
 11
320.2685649839574
 21
2039.590755689124
 31
0.0
  0
LINE
  5
2B7
  8
OUTSIDE_THROUGH
 10
320.2685649839574
 20
2039.590755689124
 30
0.0
 11
320.4370786755817
 21
2040.039176580993
 31
0.0
  0
LINE
  5
2B8
  8
OUTSIDE_THROUGH
 10
320.4370786755817
 20
2040.039176580993
 30
0.0
 11
320.5989310238078
 21
2040.495745812981
 31
0.0
  0
LINE
  5
2B9
  8
OUTSIDE_THROUGH
 10
320.5989310238078
 20
2040.495745812981
 30
0.0
 11
320.7540380671708
 21
2040.960555544309
 31
0.0
  0
LINE
  5
2BA
  8
OUTSIDE_THROUGH
 10
320.7540380671708
 20
2040.960555544309
 30
0.0
 11
320.9023158442058
 21
2041.433697934197
 31
0.0
  0
LINE
  5
2BB
  8
OUTSIDE_THROUGH
 10
320.9023158442058
 20
2041.433697934197
 30
0.0
 11
321.0436803934481
 21
2041.915265141866
 31
0.0
  0
LINE
  5
2BC
  8
OUTSIDE_THROUGH
 10
321.0436803934481
 20
2041.915265141866
 30
0.0
 11
321.1780477534328
 21
2042.405349326536
 31
0.0
  0
LINE
  5
2BD
  8
OUTSIDE_THROUGH
 10
321.1780477534328
 20
2042.405349326536
 30
0.0
 11
321.3053339626953
 21
2042.904042647429
 31
0.0
  0
LINE
  5
2BE
  8
OUTSIDE_THROUGH
 10
321.3053339626953
 20
2042.904042647429
 30
0.0
 11
321.5383270831941
 21
2043.927625334762
 31
0.0
  0
LINE
  5
2BF
  8
OUTSIDE_THROUGH
 10
321.5383270831941
 20
2043.927625334762
 30
0.0
 11
321.7419880632262
 21
2044.986750477631
 31
0.0
  0
LINE
  5
2C0
  8
OUTSIDE_THROUGH
 10
321.7419880632262
 20
2044.986750477631
 30
0.0
 11
321.9156452110731
 21
2046.082155349801
 31
0.0
  0
LINE
  5
2C1
  8
OUTSIDE_THROUGH
 10
321.9156452110731
 20
2046.082155349801
 30
0.0
 11
322.0586268350166
 21
2047.214577225035
 31
0.0
  0
LINE
  5
2C2
  8
OUTSIDE_THROUGH
 10
322.0586268350166
 20
2047.214577225035
 30
0.0
 11
322.1702612433381
 21
2048.3847533771
 31
0.0
  0
LINE
  5
2C3
  8
OUTSIDE_THROUGH
 10
322.1702612433381
 20
2048.3847533771
 30
0.0
 11
322.2498767443194
 21
2049.593421079759
 31
0.0
  0
LINE
  5
2C4
  8
OUTSIDE_THROUGH
 10
322.2498767443194
 20
2049.593421079759
 30
0.0
 11
322.2968016462421
 21
2050.841317606778
 31
0.0
  0
LINE
  5
2C5
  8
OUTSIDE_THROUGH
 10
322.2968016462421
 20
2050.841317606778
 30
0.0
 11
322.3103642573878
 21
2052.129180231921
 31
0.0
  0
LINE
  5
2C6
  8
OUTSIDE_THROUGH
 10
322.3103642573878
 20
2052.129180231921
 30
0.0
 11
275.9520207446494
 21
2052.129180231921
 31
0.0
  0
LINE
  5
2C7
  8
OUTSIDE_THROUGH
 10
275.9520207446494
 20
2052.129180231921
 30
0.0
 11
275.9520207446494
 21
2062.129180231921
 31
0.0
  0
LINE
  5
2C8
  8
OUTSIDE_THROUGH
 10
275.9520207446494
 20
2062.129180231921
 30
0.0
 11
226.3926116328284
 21
2062.129180231917
 31
0.0
  0
LINE
  5
2C9
  8
OUTSIDE_THROUGH
 10
226.3926116328284
 20
2062.129180231917
 30
0.0
 11
226.3926116328275
 21
2052.129180231921
 31
0.0
  0
LINE
  5
2CA
  8
OUTSIDE_THROUGH
 10
226.3926116328275
 20
2052.129180231921
 30
0.0
 11
58.08444879523267
 21
2052.129180231921
 31
0.0
  0
LINE
  5
2CB
  8
OUTSIDE_THROUGH
 10
58.08444879523267
 20
2052.129180231921
 30
0.0
 11
58.08444879523267
 21
2062.129180231902
 31
0.0
  0
LINE
  5
2CC
  8
OUTSIDE_THROUGH
 10
-227.0
 20
2314.999999999998
 30
0.0
 11
-257.0
 21
2315.0
 31
0.0
  0
LINE
  5
2CD
  8
OUTSIDE_THROUGH
 10
-257.0
 20
2315.0
 30
0.0
 11
-257.0
 21
2295.0
 31
0.0
  0
LINE
  5
2CE
  8
OUTSIDE_THROUGH
 10
-257.0
 20
2295.0
 30
0.0
 11
-280.8741288602796
 21
2295.0
 31
0.0
  0
LINE
  5
2CF
  8
OUTSIDE_THROUGH
 10
-280.8741288602796
 20
2295.0
 30
0.0
 11
-281.7137970416741
 21
2295.014495849609
 31
0.0
  0
LINE
  5
2D0
  8
OUTSIDE_THROUGH
 10
-281.7137970416741
 20
2295.014495849609
 30
0.0
 11
-282.5810639737061
 21
2295.057373046875
 31
0.0
  0
LINE
  5
2D1
  8
OUTSIDE_THROUGH
 10
-282.5810639737061
 20
2295.057373046875
 30
0.0
 11
-283.4754915809689
 21
2295.127716064453
 31
0.0
  0
LINE
  5
2D2
  8
OUTSIDE_THROUGH
 10
-283.4754915809689
 20
2295.127716064453
 30
0.0
 11
-284.3966417880555
 21
2295.224609375
 31
0.0
  0
LINE
  5
2D3
  8
OUTSIDE_THROUGH
 10
-284.3966417880555
 20
2295.224609375
 30
0.0
 11
-285.3440765195589
 21
2295.347137451172
 31
0.0
  0
LINE
  5
2D4
  8
OUTSIDE_THROUGH
 10
-285.3440765195589
 20
2295.347137451172
 30
0.0
 11
-286.3173577000721
 21
2295.494384765625
 31
0.0
  0
LINE
  5
2D5
  8
OUTSIDE_THROUGH
 10
-286.3173577000721
 20
2295.494384765625
 30
0.0
 11
-287.3160472541883
 21
2295.665435791016
 31
0.0
  0
LINE
  5
2D6
  8
OUTSIDE_THROUGH
 10
-287.3160472541883
 20
2295.665435791016
 30
0.0
 11
-288.3397071065004
 21
2295.859375
 31
0.0
  0
LINE
  5
2D7
  8
OUTSIDE_THROUGH
 10
-288.3397071065004
 20
2295.859375
 30
0.0
 11
-290.4601854040849
 21
2296.312255859375
 31
0.0
  0
LINE
  5
2D8
  8
OUTSIDE_THROUGH
 10
-290.4601854040849
 20
2296.312255859375
 30
0.0
 11
-292.6752879895698
 21
2296.845703125
 31
0.0
  0
LINE
  5
2D9
  8
OUTSIDE_THROUGH
 10
-292.6752879895698
 20
2296.845703125
 30
0.0
 11
-297.375347611219
 21
2298.125
 31
0.0
  0
LINE
  5
2DA
  8
OUTSIDE_THROUGH
 10
-297.375347611219
 20
2298.125
 30
0.0
 11
-331.6596965927926
 21
2308.671875
 31
0.0
  0
LINE
  5
2DB
  8
OUTSIDE_THROUGH
 10
-331.6596965927926
 20
2308.671875
 30
0.0
 11
-338.1260762552516
 21
2310.361328125
 31
0.0
  0
LINE
  5
2DC
  8
OUTSIDE_THROUGH
 10
-338.1260762552516
 20
2310.361328125
 30
0.0
 11
-344.7326400479337
 21
2311.875
 31
0.0
  0
LINE
  5
2DD
  8
OUTSIDE_THROUGH
 10
-344.7326400479337
 20
2311.875
 30
0.0
 11
-348.0797294849694
 21
2312.547607421875
 31
0.0
  0
LINE
  5
2DE
  8
OUTSIDE_THROUGH
 10
-348.0797294849694
 20
2312.547607421875
 30
0.0
 11
-351.4513511447942
 21
2313.154296875
 31
0.0
  0
LINE
  5
2DF
  8
OUTSIDE_THROUGH
 10
-351.4513511447942
 20
2313.154296875
 30
0.0
 11
-354.8440004241523
 21
2313.687744140625
 31
0.0
  0
LINE
  5
2E0
  8
OUTSIDE_THROUGH
 10
-354.8440004241523
 20
2313.687744140625
 30
0.0
 11
-358.2541727197885
 21
2314.140625
 31
0.0
  0
LINE
  5
2E1
  8
OUTSIDE_THROUGH
 10
-358.2541727197885
 20
2314.140625
 30
0.0
 11
-361.6783634284468
 21
2314.505615234375
 31
0.0
  0
LINE
  5
2E2
  8
OUTSIDE_THROUGH
 10
-361.6783634284468
 20
2314.505615234375
 30
0.0
 11
-365.1130679468719
 21
2314.775390625
 31
0.0
  0
LINE
  5
2E3
  8
OUTSIDE_THROUGH
 10
-365.1130679468719
 20
2314.775390625
 30
0.0
 11
-368.5547816718082
 21
2314.942626953125
 31
0.0
  0
LINE
  5
2E4
  8
OUTSIDE_THROUGH
 10
-368.5547816718082
 20
2314.942626953125
 30
0.0
 11
-372.0
 21
2315.0
 31
0.0
  0
LINE
  5
2E5
  8
OUTSIDE_THROUGH
 10
-372.0
 20
2315.0
 30
0.0
 11
-375.4452183281918
 21
2314.942626953125
 31
0.0
  0
LINE
  5
2E6
  8
OUTSIDE_THROUGH
 10
-375.4452183281918
 20
2314.942626953125
 30
0.0
 11
-378.8869320531281
 21
2314.775390625
 31
0.0
  0
LINE
  5
2E7
  8
OUTSIDE_THROUGH
 10
-378.8869320531281
 20
2314.775390625
 30
0.0
 11
-382.3216365715532
 21
2314.505615234375
 31
0.0
  0
LINE
  5
2E8
  8
OUTSIDE_THROUGH
 10
-382.3216365715532
 20
2314.505615234375
 30
0.0
 11
-385.7458272802115
 21
2314.140625
 31
0.0
  0
LINE
  5
2E9
  8
OUTSIDE_THROUGH
 10
-385.7458272802115
 20
2314.140625
 30
0.0
 11
-389.1559995758477
 21
2313.687744140625
 31
0.0
  0
LINE
  5
2EA
  8
OUTSIDE_THROUGH
 10
-389.1559995758477
 20
2313.687744140625
 30
0.0
 11
-392.5486488552058
 21
2313.154296875
 31
0.0
  0
LINE
  5
2EB
  8
OUTSIDE_THROUGH
 10
-392.5486488552058
 20
2313.154296875
 30
0.0
 11
-395.9202705150306
 21
2312.547607421875
 31
0.0
  0
LINE
  5
2EC
  8
OUTSIDE_THROUGH
 10
-395.9202705150306
 20
2312.547607421875
 30
0.0
 11
-399.2673599520663
 21
2311.875
 31
0.0
  0
LINE
  5
2ED
  8
OUTSIDE_THROUGH
 10
-399.2673599520663
 20
2311.875
 30
0.0
 11
-405.8739237447484
 21
2310.361328125
 31
0.0
  0
LINE
  5
2EE
  8
OUTSIDE_THROUGH
 10
-405.8739237447484
 20
2310.361328125
 30
0.0
 11
-412.3403034072074
 21
2308.671875
 31
0.0
  0
LINE
  5
2EF
  8
OUTSIDE_THROUGH
 10
-412.3403034072074
 20
2308.671875
 30
0.0
 11
-446.624652388781
 21
2298.125
 31
0.0
  0
LINE
  5
2F0
  8
OUTSIDE_THROUGH
 10
-446.624652388781
 20
2298.125
 30
0.0
 11
-451.3247120104302
 21
2296.845703125
 31
0.0
  0
LINE
  5
2F1
  8
OUTSIDE_THROUGH
 10
-451.3247120104302
 20
2296.845703125
 30
0.0
 11
-453.5398145959151
 21
2296.312255859375
 31
0.0
  0
LINE
  5
2F2
  8
OUTSIDE_THROUGH
 10
-453.5398145959151
 20
2296.312255859375
 30
0.0
 11
-455.6602928934996
 21
2295.859375
 31
0.0
  0
LINE
  5
2F3
  8
OUTSIDE_THROUGH
 10
-455.6602928934996
 20
2295.859375
 30
0.0
 11
-456.6839527458117
 21
2295.665435791016
 31
0.0
  0
LINE
  5
2F4
  8
OUTSIDE_THROUGH
 10
-456.6839527458117
 20
2295.665435791016
 30
0.0
 11
-457.6826422999279
 21
2295.494384765625
 31
0.0
  0
LINE
  5
2F5
  8
OUTSIDE_THROUGH
 10
-457.6826422999279
 20
2295.494384765625
 30
0.0
 11
-458.6559234804411
 21
2295.347137451172
 31
0.0
  0
LINE
  5
2F6
  8
OUTSIDE_THROUGH
 10
-458.6559234804411
 20
2295.347137451172
 30
0.0
 11
-459.6033582119445
 21
2295.224609375
 31
0.0
  0
LINE
  5
2F7
  8
OUTSIDE_THROUGH
 10
-459.6033582119445
 20
2295.224609375
 30
0.0
 11
-460.5245084190311
 21
2295.127716064453
 31
0.0
  0
LINE
  5
2F8
  8
OUTSIDE_THROUGH
 10
-460.5245084190311
 20
2295.127716064453
 30
0.0
 11
-461.4189360262939
 21
2295.057373046875
 31
0.0
  0
LINE
  5
2F9
  8
OUTSIDE_THROUGH
 10
-461.4189360262939
 20
2295.057373046875
 30
0.0
 11
-462.2862029583259
 21
2295.014495849609
 31
0.0
  0
LINE
  5
2FA
  8
OUTSIDE_THROUGH
 10
-462.2862029583259
 20
2295.014495849609
 30
0.0
 11
-463.1258711397204
 21
2295.0
 31
0.0
  0
LINE
  5
2FB
  8
OUTSIDE_THROUGH
 10
-463.1258711397204
 20
2295.0
 30
0.0
 11
-487.0
 21
2295.0
 31
0.0
  0
LINE
  5
2FC
  8
OUTSIDE_THROUGH
 10
-487.0
 20
2295.0
 30
0.0
 11
-487.0
 21
2314.999999999998
 31
0.0
  0
LINE
  5
2FD
  8
OUTSIDE_THROUGH
 10
-487.0
 20
2314.999999999998
 30
0.0
 11
-517.0
 21
2315.0
 31
0.0
  0
LINE
  5
2FE
  8
OUTSIDE_THROUGH
 10
-517.0
 20
2315.0
 30
0.0
 11
-517.0
 21
2295.0
 31
0.0
  0
LINE
  5
2FF
  8
OUTSIDE_THROUGH
 10
-517.0
 20
2295.0
 30
0.0
 11
-564.0
 21
2295.0
 31
0.0
  0
LINE
  5
300
  8
OUTSIDE_THROUGH
 10
-564.0
 20
2295.0
 30
0.0
 11
-566.7277234395345
 21
2295.028839111328
 31
0.0
  0
LINE
  5
301
  8
OUTSIDE_THROUGH
 10
-566.7277234395345
 20
2295.028839111328
 30
0.0
 11
-569.5649515787761
 21
2295.113525390625
 31
0.0
  0
LINE
  5
302
  8
OUTSIDE_THROUGH
 10
-569.5649515787761
 20
2295.113525390625
 30
0.0
 11
-575.5547688802084
 21
2295.439453125
 31
0.0
  0
LINE
  5
303
  8
OUTSIDE_THROUGH
 10
-575.5547688802084
 20
2295.439453125
 30
0.0
 11
-581.9431457519531
 21
2295.955810546875
 31
0.0
  0
LINE
  5
304
  8
OUTSIDE_THROUGH
 10
-581.9431457519531
 20
2295.955810546875
 30
0.0
 11
-588.7037760416667
 21
2296.640625
 31
0.0
  0
LINE
  5
305
  8
OUTSIDE_THROUGH
 10
-588.7037760416667
 20
2296.640625
 30
0.0
 11
-670.9966634114584
 21
2307.919921875
 31
0.0
  0
LINE
  5
306
  8
OUTSIDE_THROUGH
 10
-670.9966634114584
 20
2307.919921875
 30
0.0
 11
-689.2916666666667
 21
2310.0
 31
0.0
  0
LINE
  5
307
  8
OUTSIDE_THROUGH
 10
-689.2916666666667
 20
2310.0
 30
0.0
 11
-707.73779296875
 21
2311.640625
 31
0.0
  0
LINE
  5
308
  8
OUTSIDE_THROUGH
 10
-707.73779296875
 20
2311.640625
 30
0.0
 11
-726.2747395833333
 21
2312.8125
 31
0.0
  0
LINE
  5
309
  8
OUTSIDE_THROUGH
 10
-726.2747395833333
 20
2312.8125
 30
0.0
 11
-744.8722330729166
 21
2313.515625
 31
0.0
  0
LINE
  5
30A
  8
OUTSIDE_THROUGH
 10
-744.8722330729166
 20
2313.515625
 30
0.0
 11
-763.5
 21
2313.75
 31
0.0
  0
LINE
  5
30B
  8
OUTSIDE_THROUGH
 10
-763.5
 20
2313.75
 30
0.0
 11
-782.1277669270833
 21
2313.515625
 31
0.0
  0
LINE
  5
30C
  8
OUTSIDE_THROUGH
 10
-782.1277669270833
 20
2313.515625
 30
0.0
 11
-800.7252604166666
 21
2312.8125
 31
0.0
  0
LINE
  5
30D
  8
OUTSIDE_THROUGH
 10
-800.7252604166666
 20
2312.8125
 30
0.0
 11
-819.26220703125
 21
2311.640625
 31
0.0
  0
LINE
  5
30E
  8
OUTSIDE_THROUGH
 10
-819.26220703125
 20
2311.640625
 30
0.0
 11
-837.7083333333333
 21
2310.0
 31
0.0
  0
LINE
  5
30F
  8
OUTSIDE_THROUGH
 10
-837.7083333333333
 20
2310.0
 30
0.0
 11
-856.0033365885416
 21
2307.919921875
 31
0.0
  0
LINE
  5
310
  8
OUTSIDE_THROUGH
 10
-856.0033365885416
 20
2307.919921875
 30
0.0
 11
-938.2962239583333
 21
2296.640625
 31
0.0
  0
LINE
  5
311
  8
OUTSIDE_THROUGH
 10
-938.2962239583333
 20
2296.640625
 30
0.0
 11
-945.0568542480469
 21
2295.955810546875
 31
0.0
  0
LINE
  5
312
  8
OUTSIDE_THROUGH
 10
-945.0568542480469
 20
2295.955810546875
 30
0.0
 11
-951.4452311197916
 21
2295.439453125
 31
0.0
  0
LINE
  5
313
  8
OUTSIDE_THROUGH
 10
-951.4452311197916
 20
2295.439453125
 30
0.0
 11
-957.4350484212239
 21
2295.113525390625
 31
0.0
  0
LINE
  5
314
  8
OUTSIDE_THROUGH
 10
-957.4350484212239
 20
2295.113525390625
 30
0.0
 11
-960.2722765604655
 21
2295.028839111328
 31
0.0
  0
LINE
  5
315
  8
OUTSIDE_THROUGH
 10
-960.2722765604655
 20
2295.028839111328
 30
0.0
 11
-963.0
 21
2295.0
 31
0.0
  0
LINE
  5
316
  8
OUTSIDE_THROUGH
 10
-963.0
 20
2295.0
 30
0.0
 11
-1010.0
 21
2295.0
 31
0.0
  0
LINE
  5
317
  8
OUTSIDE_THROUGH
 10
-1010.0
 20
2295.0
 30
0.0
 11
-1010.0
 21
2314.999999999998
 31
0.0
  0
LINE
  5
318
  8
OUTSIDE_THROUGH
 10
-1010.0
 20
2314.999999999998
 30
0.0
 11
-1040.0
 21
2315.0
 31
0.0
  0
LINE
  5
319
  8
OUTSIDE_THROUGH
 10
-1040.0
 20
2315.0
 30
0.0
 11
-1040.0
 21
2295.0
 31
0.0
  0
LINE
  5
31A
  8
OUTSIDE_THROUGH
 10
-1040.0
 20
2295.0
 30
0.0
 11
-1070.000000000001
 21
2295.0
 31
0.0
  0
ARC
  5
31B
  8
OUTSIDE_THROUGH
 10
-1070.000000000001
 20
2315.0
 30
0.0
 40
20.0
 50
180.0
 51
270.0
  0
LINE
  5
31C
  8
OUTSIDE_THROUGH
 10
-1090.000000000001
 20
2315.0
 30
0.0
 11
-1090.000000000002
 21
2355.0
 31
0.0
  0
ARC
  5
31D
  8
OUTSIDE_THROUGH
 10
-1070.000000000002
 20
2355.0
 30
0.0
 40
20.0
 50
89.9999999999948
 51
180.0
  0
LINE
  5
31E
  8
OUTSIDE_THROUGH
 10
-1070.0
 20
2375.0
 30
0.0
 11
-1040.0
 21
2375.0
 31
0.0
  0
LINE
  5
31F
  8
OUTSIDE_THROUGH
 10
-1040.0
 20
2375.0
 30
0.0
 11
-1040.0
 21
2355.0
 31
0.0
  0
LINE
  5
320
  8
OUTSIDE_THROUGH
 10
-1040.0
 20
2355.0
 30
0.0
 11
-1010.0
 21
2355.0
 31
0.0
  0
LINE
  5
321
  8
OUTSIDE_THROUGH
 10
-1010.0
 20
2355.0
 30
0.0
 11
-1010.0
 21
2375.0
 31
0.0
  0
LINE
  5
322
  8
OUTSIDE_THROUGH
 10
-1010.0
 20
2375.0
 30
0.0
 11
-973.0
 21
2375.0
 31
0.0
  0
LINE
  5
323
  8
OUTSIDE_THROUGH
 10
-973.0
 20
2375.0
 30
0.0
 11
-973.0
 21
2350.0
 31
0.0
  0
LINE
  5
324
  8
OUTSIDE_THROUGH
 10
-973.0
 20
2350.0
 30
0.0
 11
-953.0
 21
2350.0
 31
0.0
  0
LINE
  5
325
  8
OUTSIDE_THROUGH
 10
-953.0
 20
2350.0
 30
0.0
 11
-953.0
 21
2375.0
 31
0.0
  0
LINE
  5
326
  8
OUTSIDE_THROUGH
 10
-953.0
 20
2375.0
 30
0.0
 11
-916.0
 21
2375.0
 31
0.0
  0
LINE
  5
327
  8
OUTSIDE_THROUGH
 10
-916.0
 20
2375.0
 30
0.0
 11
-916.0
 21
2350.0
 31
0.0
  0
LINE
  5
328
  8
OUTSIDE_THROUGH
 10
-916.0
 20
2350.0
 30
0.0
 11
-896.0
 21
2350.0
 31
0.0
  0
LINE
  5
329
  8
OUTSIDE_THROUGH
 10
-896.0
 20
2350.0
 30
0.0
 11
-896.0
 21
2375.0
 31
0.0
  0
LINE
  5
32A
  8
OUTSIDE_THROUGH
 10
-896.0
 20
2375.0
 30
0.0
 11
-859.0
 21
2375.0
 31
0.0
  0
LINE
  5
32B
  8
OUTSIDE_THROUGH
 10
-859.0
 20
2375.0
 30
0.0
 11
-859.0
 21
2350.0
 31
0.0
  0
LINE
  5
32C
  8
OUTSIDE_THROUGH
 10
-859.0
 20
2350.0
 30
0.0
 11
-839.0
 21
2350.0
 31
0.0
  0
LINE
  5
32D
  8
OUTSIDE_THROUGH
 10
-839.0
 20
2350.0
 30
0.0
 11
-839.0
 21
2375.0
 31
0.0
  0
LINE
  5
32E
  8
OUTSIDE_THROUGH
 10
-839.0
 20
2375.0
 30
0.0
 11
-802.0
 21
2375.0
 31
0.0
  0
LINE
  5
32F
  8
OUTSIDE_THROUGH
 10
-802.0
 20
2375.0
 30
0.0
 11
-802.0
 21
2350.0
 31
0.0
  0
LINE
  5
330
  8
OUTSIDE_THROUGH
 10
-802.0
 20
2350.0
 30
0.0
 11
-782.0
 21
2350.0
 31
0.0
  0
LINE
  5
331
  8
OUTSIDE_THROUGH
 10
-782.0
 20
2350.0
 30
0.0
 11
-782.0
 21
2375.0
 31
0.0
  0
LINE
  5
332
  8
OUTSIDE_THROUGH
 10
-782.0
 20
2375.0
 30
0.0
 11
-763.5
 21
2375.0
 31
0.0
  0
LINE
  5
333
  8
OUTSIDE_THROUGH
 10
-763.5
 20
2375.0
 30
0.0
 11
-745.0
 21
2375.0
 31
0.0
  0
LINE
  5
334
  8
OUTSIDE_THROUGH
 10
-745.0
 20
2375.0
 30
0.0
 11
-745.0
 21
2350.0
 31
0.0
  0
LINE
  5
335
  8
OUTSIDE_THROUGH
 10
-745.0
 20
2350.0
 30
0.0
 11
-725.0
 21
2350.0
 31
0.0
  0
LINE
  5
336
  8
OUTSIDE_THROUGH
 10
-725.0
 20
2350.0
 30
0.0
 11
-725.0
 21
2375.0
 31
0.0
  0
LINE
  5
337
  8
OUTSIDE_THROUGH
 10
-725.0
 20
2375.0
 30
0.0
 11
-688.0
 21
2375.0
 31
0.0
  0
LINE
  5
338
  8
OUTSIDE_THROUGH
 10
-688.0
 20
2375.0
 30
0.0
 11
-688.0
 21
2350.0
 31
0.0
  0
LINE
  5
339
  8
OUTSIDE_THROUGH
 10
-688.0
 20
2350.0
 30
0.0
 11
-668.0
 21
2350.0
 31
0.0
  0
LINE
  5
33A
  8
OUTSIDE_THROUGH
 10
-668.0
 20
2350.0
 30
0.0
 11
-668.0
 21
2375.0
 31
0.0
  0
LINE
  5
33B
  8
OUTSIDE_THROUGH
 10
-668.0
 20
2375.0
 30
0.0
 11
-631.0
 21
2375.0
 31
0.0
  0
LINE
  5
33C
  8
OUTSIDE_THROUGH
 10
-631.0
 20
2375.0
 30
0.0
 11
-631.0
 21
2350.0
 31
0.0
  0
LINE
  5
33D
  8
OUTSIDE_THROUGH
 10
-631.0
 20
2350.0
 30
0.0
 11
-611.0
 21
2350.0
 31
0.0
  0
LINE
  5
33E
  8
OUTSIDE_THROUGH
 10
-611.0
 20
2350.0
 30
0.0
 11
-611.0
 21
2375.0
 31
0.0
  0
LINE
  5
33F
  8
OUTSIDE_THROUGH
 10
-611.0
 20
2375.0
 30
0.0
 11
-574.0
 21
2375.0
 31
0.0
  0
LINE
  5
340
  8
OUTSIDE_THROUGH
 10
-574.0
 20
2375.0
 30
0.0
 11
-574.0
 21
2350.0
 31
0.0
  0
LINE
  5
341
  8
OUTSIDE_THROUGH
 10
-574.0
 20
2350.0
 30
0.0
 11
-554.0
 21
2350.0
 31
0.0
  0
LINE
  5
342
  8
OUTSIDE_THROUGH
 10
-554.0
 20
2350.0
 30
0.0
 11
-554.0
 21
2375.0
 31
0.0
  0
LINE
  5
343
  8
OUTSIDE_THROUGH
 10
-554.0
 20
2375.0
 30
0.0
 11
-517.0
 21
2375.0
 31
0.0
  0
LINE
  5
344
  8
OUTSIDE_THROUGH
 10
-517.0
 20
2375.0
 30
0.0
 11
-517.0
 21
2355.0
 31
0.0
  0
LINE
  5
345
  8
OUTSIDE_THROUGH
 10
-517.0
 20
2355.0
 30
0.0
 11
-487.0
 21
2355.0
 31
0.0
  0
LINE
  5
346
  8
OUTSIDE_THROUGH
 10
-487.0
 20
2355.0
 30
0.0
 11
-487.0
 21
2375.0
 31
0.0
  0
LINE
  5
347
  8
OUTSIDE_THROUGH
 10
-487.0
 20
2375.0
 30
0.0
 11
-463.1258711397204
 21
2375.0
 31
0.0
  0
LINE
  5
348
  8
OUTSIDE_THROUGH
 10
-463.1258711397204
 20
2375.0
 30
0.0
 11
-462.2862029583259
 21
2374.985504150391
 31
0.0
  0
LINE
  5
349
  8
OUTSIDE_THROUGH
 10
-462.2862029583259
 20
2374.985504150391
 30
0.0
 11
-461.4189360262939
 21
2374.942626953125
 31
0.0
  0
LINE
  5
34A
  8
OUTSIDE_THROUGH
 10
-461.4189360262939
 20
2374.942626953125
 30
0.0
 11
-460.5245084190311
 21
2374.872283935547
 31
0.0
  0
LINE
  5
34B
  8
OUTSIDE_THROUGH
 10
-460.5245084190311
 20
2374.872283935547
 30
0.0
 11
-459.6033582119445
 21
2374.775390625
 31
0.0
  0
LINE
  5
34C
  8
OUTSIDE_THROUGH
 10
-459.6033582119445
 20
2374.775390625
 30
0.0
 11
-458.6559234804411
 21
2374.652862548828
 31
0.0
  0
LINE
  5
34D
  8
OUTSIDE_THROUGH
 10
-458.6559234804411
 20
2374.652862548828
 30
0.0
 11
-457.6826422999279
 21
2374.505615234375
 31
0.0
  0
LINE
  5
34E
  8
OUTSIDE_THROUGH
 10
-457.6826422999279
 20
2374.505615234375
 30
0.0
 11
-456.6839527458117
 21
2374.334564208984
 31
0.0
  0
LINE
  5
34F
  8
OUTSIDE_THROUGH
 10
-456.6839527458117
 20
2374.334564208984
 30
0.0
 11
-455.6602928934996
 21
2374.140625
 31
0.0
  0
LINE
  5
350
  8
OUTSIDE_THROUGH
 10
-455.6602928934996
 20
2374.140625
 30
0.0
 11
-453.5398145959151
 21
2373.687744140625
 31
0.0
  0
LINE
  5
351
  8
OUTSIDE_THROUGH
 10
-453.5398145959151
 20
2373.687744140625
 30
0.0
 11
-451.3247120104302
 21
2373.154296875
 31
0.0
  0
LINE
  5
352
  8
OUTSIDE_THROUGH
 10
-451.3247120104302
 20
2373.154296875
 30
0.0
 11
-446.624652388781
 21
2371.875
 31
0.0
  0
LINE
  5
353
  8
OUTSIDE_THROUGH
 10
-446.624652388781
 20
2371.875
 30
0.0
 11
-412.3403034072073
 21
2361.328125
 31
0.0
  0
LINE
  5
354
  8
OUTSIDE_THROUGH
 10
-412.3403034072073
 20
2361.328125
 30
0.0
 11
-405.8739237447483
 21
2359.638671875
 31
0.0
  0
LINE
  5
355
  8
OUTSIDE_THROUGH
 10
-405.8739237447483
 20
2359.638671875
 30
0.0
 11
-399.2673599520662
 21
2358.125
 31
0.0
  0
LINE
  5
356
  8
OUTSIDE_THROUGH
 10
-399.2673599520662
 20
2358.125
 30
0.0
 11
-395.9202705150304
 21
2357.452392578125
 31
0.0
  0
LINE
  5
357
  8
OUTSIDE_THROUGH
 10
-395.9202705150304
 20
2357.452392578125
 30
0.0
 11
-392.5486488552057
 21
2356.845703125
 31
0.0
  0
LINE
  5
358
  8
OUTSIDE_THROUGH
 10
-392.5486488552057
 20
2356.845703125
 30
0.0
 11
-389.1559995758474
 21
2356.312255859375
 31
0.0
  0
LINE
  5
359
  8
OUTSIDE_THROUGH
 10
-389.1559995758474
 20
2356.312255859375
 30
0.0
 11
-385.7458272802114
 21
2355.859375
 31
0.0
  0
LINE
  5
35A
  8
OUTSIDE_THROUGH
 10
-385.7458272802114
 20
2355.859375
 30
0.0
 11
-382.321636571553
 21
2355.494384765625
 31
0.0
  0
LINE
  5
35B
  8
OUTSIDE_THROUGH
 10
-382.321636571553
 20
2355.494384765625
 30
0.0
 11
-378.8869320531279
 21
2355.224609375
 31
0.0
  0
LINE
  5
35C
  8
OUTSIDE_THROUGH
 10
-378.8869320531279
 20
2355.224609375
 30
0.0
 11
-375.4452183281916
 21
2355.057373046875
 31
0.0
  0
LINE
  5
35D
  8
OUTSIDE_THROUGH
 10
-375.4452183281916
 20
2355.057373046875
 30
0.0
 11
-371.9999999999998
 21
2355.0
 31
0.0
  0
LINE
  5
35E
  8
OUTSIDE_THROUGH
 10
-371.9999999999998
 20
2355.0
 30
0.0
 11
-368.554781671808
 21
2355.057373046875
 31
0.0
  0
LINE
  5
35F
  8
OUTSIDE_THROUGH
 10
-368.554781671808
 20
2355.057373046875
 30
0.0
 11
-365.1130679468717
 21
2355.224609375
 31
0.0
  0
LINE
  5
360
  8
OUTSIDE_THROUGH
 10
-365.1130679468717
 20
2355.224609375
 30
0.0
 11
-361.6783634284466
 21
2355.494384765625
 31
0.0
  0
LINE
  5
361
  8
OUTSIDE_THROUGH
 10
-361.6783634284466
 20
2355.494384765625
 30
0.0
 11
-358.2541727197882
 21
2355.859375
 31
0.0
  0
LINE
  5
362
  8
OUTSIDE_THROUGH
 10
-358.2541727197882
 20
2355.859375
 30
0.0
 11
-354.8440004241522
 21
2356.312255859375
 31
0.0
  0
LINE
  5
363
  8
OUTSIDE_THROUGH
 10
-354.8440004241522
 20
2356.312255859375
 30
0.0
 11
-351.451351144794
 21
2356.845703125
 31
0.0
  0
LINE
  5
364
  8
OUTSIDE_THROUGH
 10
-351.451351144794
 20
2356.845703125
 30
0.0
 11
-348.0797294849692
 21
2357.452392578125
 31
0.0
  0
LINE
  5
365
  8
OUTSIDE_THROUGH
 10
-348.0797294849692
 20
2357.452392578125
 30
0.0
 11
-344.7326400479336
 21
2358.125
 31
0.0
  0
LINE
  5
366
  8
OUTSIDE_THROUGH
 10
-344.7326400479336
 20
2358.125
 30
0.0
 11
-338.1260762552515
 21
2359.638671875
 31
0.0
  0
LINE
  5
367
  8
OUTSIDE_THROUGH
 10
-338.1260762552515
 20
2359.638671875
 30
0.0
 11
-331.6596965927924
 21
2361.328125
 31
0.0
  0
LINE
  5
368
  8
OUTSIDE_THROUGH
 10
-331.6596965927924
 20
2361.328125
 30
0.0
 11
-297.375347611219
 21
2371.875
 31
0.0
  0
LINE
  5
369
  8
OUTSIDE_THROUGH
 10
-297.375347611219
 20
2371.875
 30
0.0
 11
-292.6752879895698
 21
2373.154296875
 31
0.0
  0
LINE
  5
36A
  8
OUTSIDE_THROUGH
 10
-292.6752879895698
 20
2373.154296875
 30
0.0
 11
-290.4601854040849
 21
2373.687744140625
 31
0.0
  0
LINE
  5
36B
  8
OUTSIDE_THROUGH
 10
-290.4601854040849
 20
2373.687744140625
 30
0.0
 11
-288.3397071065004
 21
2374.140625
 31
0.0
  0
LINE
  5
36C
  8
OUTSIDE_THROUGH
 10
-288.3397071065004
 20
2374.140625
 30
0.0
 11
-287.3160472541883
 21
2374.334564208984
 31
0.0
  0
LINE
  5
36D
  8
OUTSIDE_THROUGH
 10
-287.3160472541883
 20
2374.334564208984
 30
0.0
 11
-286.3173577000721
 21
2374.505615234375
 31
0.0
  0
LINE
  5
36E
  8
OUTSIDE_THROUGH
 10
-286.3173577000721
 20
2374.505615234375
 30
0.0
 11
-285.3440765195589
 21
2374.652862548828
 31
0.0
  0
LINE
  5
36F
  8
OUTSIDE_THROUGH
 10
-285.3440765195589
 20
2374.652862548828
 30
0.0
 11
-284.3966417880555
 21
2374.775390625
 31
0.0
  0
LINE
  5
370
  8
OUTSIDE_THROUGH
 10
-284.3966417880555
 20
2374.775390625
 30
0.0
 11
-283.4754915809689
 21
2374.872283935547
 31
0.0
  0
LINE
  5
371
  8
OUTSIDE_THROUGH
 10
-283.4754915809689
 20
2374.872283935547
 30
0.0
 11
-282.5810639737061
 21
2374.942626953125
 31
0.0
  0
LINE
  5
372
  8
OUTSIDE_THROUGH
 10
-282.5810639737061
 20
2374.942626953125
 30
0.0
 11
-281.7137970416741
 21
2374.985504150391
 31
0.0
  0
LINE
  5
373
  8
OUTSIDE_THROUGH
 10
-281.7137970416741
 20
2374.985504150391
 30
0.0
 11
-280.8741288602795
 21
2375.0
 31
0.0
  0
LINE
  5
374
  8
OUTSIDE_THROUGH
 10
-280.8741288602796
 20
2375.0
 30
0.0
 11
-257.0
 21
2375.0
 31
0.0
  0
LINE
  5
375
  8
OUTSIDE_THROUGH
 10
-257.0
 20
2375.0
 30
0.0
 11
-257.0
 21
2355.0
 31
0.0
  0
LINE
  5
376
  8
OUTSIDE_THROUGH
 10
-257.0
 20
2355.0
 30
0.0
 11
-227.0
 21
2355.0
 31
0.0
  0
LINE
  5
377
  8
OUTSIDE_THROUGH
 10
-227.0
 20
2355.0
 30
0.0
 11
-227.0
 21
2375.0
 31
0.0
  0
LINE
  5
378
  8
OUTSIDE_THROUGH
 10
-227.0
 20
2375.0
 30
0.0
 11
-190.0
 21
2375.0
 31
0.0
  0
LINE
  5
379
  8
OUTSIDE_THROUGH
 10
-190.0
 20
2375.0
 30
0.0
 11
-190.0
 21
2350.0
 31
0.0
  0
LINE
  5
37A
  8
OUTSIDE_THROUGH
 10
-190.0
 20
2350.0
 30
0.0
 11
-170.0
 21
2350.0
 31
0.0
  0
LINE
  5
37B
  8
OUTSIDE_THROUGH
 10
-170.0
 20
2350.0
 30
0.0
 11
-170.0
 21
2375.0
 31
0.0
  0
LINE
  5
37C
  8
OUTSIDE_THROUGH
 10
-170.0
 20
2375.0
 30
0.0
 11
-133.0
 21
2375.0
 31
0.0
  0
LINE
  5
37D
  8
OUTSIDE_THROUGH
 10
-133.0
 20
2375.0
 30
0.0
 11
-133.0
 21
2350.0
 31
0.0
  0
LINE
  5
37E
  8
OUTSIDE_THROUGH
 10
-133.0
 20
2350.0
 30
0.0
 11
-113.0
 21
2350.0
 31
0.0
  0
LINE
  5
37F
  8
OUTSIDE_THROUGH
 10
-113.0
 20
2350.0
 30
0.0
 11
-113.0
 21
2375.0
 31
0.0
  0
LINE
  5
380
  8
OUTSIDE_THROUGH
 10
-113.0
 20
2375.0
 30
0.0
 11
-76.0
 21
2375.0
 31
0.0
  0
LINE
  5
381
  8
OUTSIDE_THROUGH
 10
-76.0
 20
2375.0
 30
0.0
 11
-76.0
 21
2350.0
 31
0.0
  0
LINE
  5
382
  8
OUTSIDE_THROUGH
 10
-76.0
 20
2350.0
 30
0.0
 11
-56.0
 21
2350.0
 31
0.0
  0
LINE
  5
383
  8
OUTSIDE_THROUGH
 10
-56.0
 20
2350.0
 30
0.0
 11
-56.0
 21
2375.0
 31
0.0
  0
LINE
  5
384
  8
OUTSIDE_THROUGH
 10
-56.0
 20
2375.0
 30
0.0
 11
-19.0
 21
2375.0
 31
0.0
  0
LINE
  5
385
  8
OUTSIDE_THROUGH
 10
-19.0
 20
2375.0
 30
0.0
 11
-19.0
 21
2350.0
 31
0.0
  0
LINE
  5
386
  8
OUTSIDE_THROUGH
 10
-19.0
 20
2350.0
 30
0.0
 11
1.0
 21
2350.0
 31
0.0
  0
LINE
  5
387
  8
OUTSIDE_THROUGH
 10
1.0
 20
2350.0
 30
0.0
 11
1.0
 21
2375.0
 31
0.0
  0
LINE
  5
388
  8
OUTSIDE_THROUGH
 10
1.0
 20
2375.0
 30
0.0
 11
19.5
 21
2375.0
 31
0.0
  0
LINE
  5
389
  8
OUTSIDE_THROUGH
 10
19.5
 20
2375.0
 30
0.0
 11
38.0
 21
2375.0
 31
0.0
  0
LINE
  5
38A
  8
OUTSIDE_THROUGH
 10
38.0
 20
2375.0
 30
0.0
 11
38.0
 21
2350.0
 31
0.0
  0
LINE
  5
38B
  8
OUTSIDE_THROUGH
 10
38.0
 20
2350.0
 30
0.0
 11
58.0
 21
2350.0
 31
0.0
  0
LINE
  5
38C
  8
OUTSIDE_THROUGH
 10
58.0
 20
2350.0
 30
0.0
 11
58.0
 21
2375.0
 31
0.0
  0
LINE
  5
38D
  8
OUTSIDE_THROUGH
 10
58.0
 20
2375.0
 30
0.0
 11
95.0
 21
2375.0
 31
0.0
  0
LINE
  5
38E
  8
OUTSIDE_THROUGH
 10
95.0
 20
2375.0
 30
0.0
 11
95.0
 21
2350.0
 31
0.0
  0
LINE
  5
38F
  8
OUTSIDE_THROUGH
 10
95.0
 20
2350.0
 30
0.0
 11
115.0
 21
2350.0
 31
0.0
  0
LINE
  5
390
  8
OUTSIDE_THROUGH
 10
115.0
 20
2350.0
 30
0.0
 11
115.0
 21
2375.0
 31
0.0
  0
LINE
  5
391
  8
OUTSIDE_THROUGH
 10
115.0
 20
2375.0
 30
0.0
 11
152.0
 21
2375.0
 31
0.0
  0
LINE
  5
392
  8
OUTSIDE_THROUGH
 10
152.0
 20
2375.0
 30
0.0
 11
152.0
 21
2350.0
 31
0.0
  0
LINE
  5
393
  8
OUTSIDE_THROUGH
 10
152.0
 20
2350.0
 30
0.0
 11
172.0
 21
2350.0
 31
0.0
  0
LINE
  5
394
  8
OUTSIDE_THROUGH
 10
172.0
 20
2350.0
 30
0.0
 11
172.0
 21
2375.0
 31
0.0
  0
LINE
  5
395
  8
OUTSIDE_THROUGH
 10
172.0
 20
2375.0
 30
0.0
 11
209.0
 21
2375.0
 31
0.0
  0
LINE
  5
396
  8
OUTSIDE_THROUGH
 10
209.0
 20
2375.0
 30
0.0
 11
209.0
 21
2350.0
 31
0.0
  0
LINE
  5
397
  8
OUTSIDE_THROUGH
 10
209.0
 20
2350.0
 30
0.0
 11
229.0
 21
2350.0
 31
0.0
  0
LINE
  5
398
  8
OUTSIDE_THROUGH
 10
229.0
 20
2350.0
 30
0.0
 11
229.0
 21
2375.0
 31
0.0
  0
LINE
  5
399
  8
OUTSIDE_THROUGH
 10
229.0
 20
2375.0
 30
0.0
 11
266.0
 21
2375.0
 31
0.0
  0
LINE
  5
39A
  8
OUTSIDE_THROUGH
 10
266.0
 20
2375.0
 30
0.0
 11
266.0
 21
2355.0
 31
0.0
  0
LINE
  5
39B
  8
OUTSIDE_THROUGH
 10
266.0
 20
2355.0
 30
0.0
 11
296.0
 21
2355.0
 31
0.0
  0
LINE
  5
39C
  8
OUTSIDE_THROUGH
 10
296.0
 20
2355.0
 30
0.0
 11
296.0
 21
2375.0
 31
0.0
  0
LINE
  5
39D
  8
OUTSIDE_THROUGH
 10
296.0
 20
2375.0
 30
0.0
 11
326.0
 21
2375.0
 31
0.0
  0
ARC
  5
39E
  8
OUTSIDE_THROUGH
 10
326.0000000000018
 20
2355.0
 30
0.0
 40
20.0
 50
0.0
 51
90.00000000000522
  0
LINE
  5
39F
  8
OUTSIDE_THROUGH
 10
346.0000000000018
 20
2355.0
 30
0.0
 11
346.0000000000009
 21
2315.0
 31
0.0
  0
ARC
  5
3A0
  8
OUTSIDE_THROUGH
 10
326.0000000000009
 20
2315.0
 30
0.0
 40
20.0
 50
270.0
 51
0.0
  0
LINE
  5
3A1
  8
OUTSIDE_THROUGH
 10
326.0000000000009
 20
2295.0
 30
0.0
 11
296.0
 21
2295.0
 31
0.0
  0
LINE
  5
3A2
  8
OUTSIDE_THROUGH
 10
296.0
 20
2295.0
 30
0.0
 11
296.0
 21
2314.999999999998
 31
0.0
  0
LINE
  5
3A3
  8
OUTSIDE_THROUGH
 10
296.0
 20
2314.999999999998
 30
0.0
 11
266.0
 21
2315.0
 31
0.0
  0
LINE
  5
3A4
  8
OUTSIDE_THROUGH
 10
266.0
 20
2315.0
 30
0.0
 11
266.0
 21
2295.0
 31
0.0
  0
LINE
  5
3A5
  8
OUTSIDE_THROUGH
 10
266.0
 20
2295.0
 30
0.0
 11
219.0000000000009
 21
2295.0
 31
0.0
  0
LINE
  5
3A6
  8
OUTSIDE_THROUGH
 10
219.0
 20
2295.0
 30
0.0
 11
216.2722765604655
 21
2295.028839111328
 31
0.0
  0
LINE
  5
3A7
  8
OUTSIDE_THROUGH
 10
216.2722765604655
 20
2295.028839111328
 30
0.0
 11
213.435048421224
 21
2295.113525390625
 31
0.0
  0
LINE
  5
3A8
  8
OUTSIDE_THROUGH
 10
213.435048421224
 20
2295.113525390625
 30
0.0
 11
207.4452311197917
 21
2295.439453125
 31
0.0
  0
LINE
  5
3A9
  8
OUTSIDE_THROUGH
 10
207.4452311197917
 20
2295.439453125
 30
0.0
 11
201.0568542480469
 21
2295.955810546875
 31
0.0
  0
LINE
  5
3AA
  8
OUTSIDE_THROUGH
 10
201.0568542480469
 20
2295.955810546875
 30
0.0
 11
194.2962239583333
 21
2296.640625
 31
0.0
  0
LINE
  5
3AB
  8
OUTSIDE_THROUGH
 10
194.2962239583333
 20
2296.640625
 30
0.0
 11
112.0033365885417
 21
2307.919921875
 31
0.0
  0
LINE
  5
3AC
  8
OUTSIDE_THROUGH
 10
112.0033365885417
 20
2307.919921875
 30
0.0
 11
93.70833333333334
 21
2310.0
 31
0.0
  0
LINE
  5
3AD
  8
OUTSIDE_THROUGH
 10
93.70833333333334
 20
2310.0
 30
0.0
 11
75.26220703125
 21
2311.640625
 31
0.0
  0
LINE
  5
3AE
  8
OUTSIDE_THROUGH
 10
75.26220703125
 20
2311.640625
 30
0.0
 11
56.72526041666666
 21
2312.8125
 31
0.0
  0
LINE
  5
3AF
  8
OUTSIDE_THROUGH
 10
56.72526041666666
 20
2312.8125
 30
0.0
 11
38.12776692708333
 21
2313.515625
 31
0.0
  0
LINE
  5
3B0
  8
OUTSIDE_THROUGH
 10
38.12776692708333
 20
2313.515625
 30
0.0
 11
19.5
 21
2313.75
 31
0.0
  0
LINE
  5
3B1
  8
OUTSIDE_THROUGH
 10
19.5
 20
2313.75
 30
0.0
 11
0.872233072916663
 21
2313.515625
 31
0.0
  0
LINE
  5
3B2
  8
OUTSIDE_THROUGH
 10
0.872233072916663
 20
2313.515625
 30
0.0
 11
-17.72526041666667
 21
2312.8125
 31
0.0
  0
LINE
  5
3B3
  8
OUTSIDE_THROUGH
 10
-17.72526041666667
 20
2312.8125
 30
0.0
 11
-36.26220703125
 21
2311.640625
 31
0.0
  0
LINE
  5
3B4
  8
OUTSIDE_THROUGH
 10
-36.26220703125
 20
2311.640625
 30
0.0
 11
-54.70833333333334
 21
2310.0
 31
0.0
  0
LINE
  5
3B5
  8
OUTSIDE_THROUGH
 10
-54.70833333333334
 20
2310.0
 30
0.0
 11
-73.00333658854167
 21
2307.919921875
 31
0.0
  0
LINE
  5
3B6
  8
OUTSIDE_THROUGH
 10
-73.00333658854167
 20
2307.919921875
 30
0.0
 11
-155.2962239583333
 21
2296.640625
 31
0.0
  0
LINE
  5
3B7
  8
OUTSIDE_THROUGH
 10
-155.2962239583333
 20
2296.640625
 30
0.0
 11
-162.0568542480469
 21
2295.955810546875
 31
0.0
  0
LINE
  5
3B8
  8
OUTSIDE_THROUGH
 10
-162.0568542480469
 20
2295.955810546875
 30
0.0
 11
-168.4452311197917
 21
2295.439453125
 31
0.0
  0
LINE
  5
3B9
  8
OUTSIDE_THROUGH
 10
-168.4452311197917
 20
2295.439453125
 30
0.0
 11
-174.435048421224
 21
2295.113525390625
 31
0.0
  0
LINE
  5
3BA
  8
OUTSIDE_THROUGH
 10
-174.435048421224
 20
2295.113525390625
 30
0.0
 11
-177.2722765604655
 21
2295.028839111328
 31
0.0
  0
LINE
  5
3BB
  8
OUTSIDE_THROUGH
 10
-177.2722765604655
 20
2295.028839111328
 30
0.0
 11
-180.0
 21
2295.0
 31
0.0
  0
LINE
  5
3BC
  8
OUTSIDE_THROUGH
 10
-180.0
 20
2295.0
 30
0.0
 11
-227.0
 21
2295.0
 31
0.0
  0
LINE
  5
3BD
  8
OUTSIDE_THROUGH
 10
-227.0
 20
2295.0
 30
0.0
 11
-227.0
 21
2314.999999999998
 31
0.0
  0
ARC
  5
3BE
  8
OUTSIDE_THROUGH
 10
-113.0000000000018
 20
1654.000000000001
 30
0.0
 40
50.0
 50
180.0
 51
270.0
  0
LINE
  5
3BF
  8
OUTSIDE_THROUGH
 10
-113.0000000000018
 20
1604.000000000001
 30
0.0
 11
286.9999999999991
 21
1604.000000000001
 31
0.0
  0
ARC
  5
3C0
  8
OUTSIDE_THROUGH
 10
286.9999999999982
 20
1654.000000000001
 30
0.0
 40
50.0
 50
270.000000000001
 51
0.0
  0
LINE
  5
3C1
  8
OUTSIDE_THROUGH
 10
336.9999999999982
 20
1654.000000000001
 30
0.0
 11
336.9999999999982
 21
1754.000000000001
 31
0.0
  0
ARC
  5
3C2
  8
OUTSIDE_THROUGH
 10
286.9999999999973
 20
1753.999999999999
 30
0.0
 40
50.00000000000182
 50
0.0000000000031266
 51
90.0
  0
LINE
  5
3C3
  8
OUTSIDE_THROUGH
 10
286.9999999999973
 20
1804.000000000001
 30
0.0
 11
-113.0000000000009
 21
1804.000000000001
 31
0.0
  0
ARC
  5
3C4
  8
OUTSIDE_THROUGH
 10
-113.0000000000036
 20
1754.000000000001
 30
0.0
 40
49.99999999999818
 50
89.99999999999689
 51
180.0
  0
LINE
  5
3C5
  8
OUTSIDE_THROUGH
 10
-163.0000000000018
 20
1754.000000000001
 30
0.0
 11
-163.0000000000018
 21
1654.000000000001
 31
0.0
  0
LINE
  5
3C7
  8
INSIDE_POCKET_10MM
 10
6.657825834101459
 20
1694.000000000001
 30
0.0
 11
56.93575063626122
 21
1694.000000000001
 31
0.0
  0
LINE
  5
3C8
  8
INSIDE_POCKET_10MM
 10
56.93575063626122
 20
1694.000000000001
 30
0.0
 11
56.93575063626122
 21
1714.000000000001
 31
0.0
  0
LINE
  5
3C9
  8
INSIDE_POCKET_10MM
 10
56.93575063626122
 20
1714.000000000001
 30
0.0
 11
6.657825834101459
 21
1714.000000000001
 31
0.0
  0
LINE
  5
3CA
  8
INSIDE_POCKET_10MM
 10
6.657825834101459
 20
1714.000000000001
 30
0.0
 11
6.657825834101459
 21
1694.000000000001
 31
0.0
  0
LINE
  5
3CB
  8
INSIDE_POCKET_10MM
 10
225.243913473857
 20
1694.000000000001
 30
0.0
 11
274.803322585678
 21
1694.000000000001
 31
0.0
  0
LINE
  5
3CC
  8
INSIDE_POCKET_10MM
 10
274.803322585678
 20
1694.000000000001
 30
0.0
 11
274.803322585678
 21
1714.000000000001
 31
0.0
  0
LINE
  5
3CD
  8
INSIDE_POCKET_10MM
 10
274.803322585678
 20
1714.000000000001
 30
0.0
 11
225.243913473857
 21
1714.000000000001
 31
0.0
  0
LINE
  5
3CE
  8
INSIDE_POCKET_10MM
 10
225.243913473857
 20
1714.000000000001
 30
0.0
 11
225.243913473857
 21
1694.000000000001
 31
0.0
  0
LINE
  5
3CF
  8
OUTSIDE_THROUGH
 10
-98.0
 20
1201.0
 30
0.0
 11
321.0
 21
1201.0
 31
0.0
  0
LINE
  5
3D0
  8
OUTSIDE_THROUGH
 10
321.0
 20
1201.0
 30
0.0
 11
321.0
 21
1231.0
 31
0.0
  0
LINE
  5
3D1
  8
OUTSIDE_THROUGH
 10
321.0
 20
1231.0
 30
0.0
 11
-98.0
 21
1231.0
 31
0.0
  0
LINE
  5
3D2
  8
OUTSIDE_THROUGH
 10
-98.0
 20
1231.0
 30
0.0
 11
-98.0
 21
1201.0
 31
0.0
  0
LINE
  5
3D3
  8
INSIDE_POCKET_10MM
 10
258.8655208861474
 20
1330.406745731284
 30
0.0
 11
261.8143738086774
 21
1330.303984642057
 31
0.0
  0
ARC
  5
3D4
  8
INSIDE_POCKET_10MM
 10
267.623163252667
 20
1532.742940823678
 30
0.0
 40
202.522277823229
 50
268.3564041789148
 51
270.8879114200735
  0
LINE
  5
3D5
  8
INSIDE_POCKET_10MM
 10
270.7615208656434
 20
1330.244981016172
 30
0.0
 11
270.7726022738461
 21
1330.245158520479
 31
0.0
  0
ARC
  5
3D6
  8
INSIDE_POCKET_10MM
 10
269.9237460895783
 20
1383.23836037919
 30
0.0
 40
53.00000000056293
 50
270.917697289336
 51
352.9412583310588
  0
LINE
  5
3D7
  8
INSIDE_POCKET_10MM
 10
322.5220424081599
 20
1376.725356122897
 30
0.0
 11
323.638851231568
 21
1385.753420138375
 31
0.0
  0
LINE
  5
3D8
  8
INSIDE_POCKET_10MM
 10
323.638851231568
 20
1385.753420138375
 30
0.0
 11
324.0067908855426
 21
1388.730771379385
 31
0.0
  0
LINE
  5
3D9
  8
INSIDE_POCKET_10MM
 10
324.0067908855426
 20
1388.730771379385
 30
0.0
 11
268.6773770051923
 21
1395.56835409559
 31
0.0
  0
LINE
  5
3DA
  8
INSIDE_POCKET_10MM
 10
268.6773770051923
 20
1395.56835409559
 30
0.0
 11
268.2528500745802
 21
1392.665236343466
 31
0.0
  0
ARC
  5
3DB
  8
INSIDE_POCKET_10MM
 10
261.3265134289668
 20
1393.678084146276
 30
0.0
 40
7.000000000001982
 50
268.9340819829264
 51
351.6805245399122
  0
LINE
  5
3DC
  8
INSIDE_POCKET_10MM
 10
261.1962944880661
 20
1386.679295463406
 30
0.0
 11
258.8655208861474
 21
1330.406745731284
 31
0.0
  0
LINE
  5
3DD
  8
OUTSIDE_THROUGH
 10
119.7569830381726
 20
1358.293692823212
 30
0.0
 11
138.296259279697
 21
1354.727204209371
 31
0.0
  0
LINE
  5
3DE
  8
OUTSIDE_THROUGH
 10
138.296259279697
 20
1354.727204209371
 30
0.0
 11
197.2697478394649
 21
1342.000794472986
 31
0.0
  0
LINE
  5
3DF
  8
OUTSIDE_THROUGH
 10
197.2697478394649
 20
1342.000794472986
 30
0.0
 11
214.6793708195227
 21
1338.664101061674
 31
0.0
  0
LINE
  5
3E0
  8
OUTSIDE_THROUGH
 10
214.6793708195227
 20
1338.664101061674
 30
0.0
 11
226.8683738683344
 21
1336.658019128556
 31
0.0
  0
LINE
  5
3E1
  8
OUTSIDE_THROUGH
 10
226.8683738683344
 20
1336.658019128556
 30
0.0
 11
235.5882416906822
 21
1335.444134806311
 31
0.0
  0
LINE
  5
3E2
  8
OUTSIDE_THROUGH
 10
235.5882416906822
 20
1335.444134806311
 30
0.0
 11
244.3213844079314
 21
1334.453278332324
 31
0.0
  0
LINE
  5
3E3
  8
OUTSIDE_THROUGH
 10
244.3213844079314
 20
1334.453278332324
 30
0.0
 11
253.0968929135179
 21
1333.723496363949
 31
0.0
  0
LINE
  5
3E4
  8
OUTSIDE_THROUGH
 10
253.0968929135179
 20
1333.723496363949
 30
0.0
 11
257.495949677366
 21
1333.471489122928
 31
0.0
  0
LINE
  5
3E5
  8
OUTSIDE_THROUGH
 10
257.495949677366
 20
1333.471489122928
 30
0.0
 11
261.898971435826
 21
1333.303313960149
 31
0.0
  0
LINE
  5
3E6
  8
OUTSIDE_THROUGH
 10
261.898971435826
 20
1333.303313960149
 30
0.0
 11
266.3059824891536
 21
1333.225531783001
 31
0.0
  0
LINE
  5
3E7
  8
OUTSIDE_THROUGH
 10
266.3059824891536
 20
1333.225531783001
 30
0.0
 11
270.7135805694406
 21
1333.245115514646
 31
0.0
  0
LINE
  5
3E8
  8
OUTSIDE_THROUGH
 10
270.7135805694406
 20
1333.245115514646
 30
0.0
 11
270.7246619776433
 21
1333.245293018951
 31
0.0
  0
ARC
  5
3E9
  8
OUTSIDE_THROUGH
 10
269.9238542561816
 20
1383.238879677574
 30
0.0
 40
50.0
 50
270.9176972898646
 51
352.9412583315886
  0
LINE
  5
3EA
  8
OUTSIDE_THROUGH
 10
319.5448885185242
 20
1377.094536040085
 30
0.0
 11
320.6616081568791
 21
1386.121879091263
 31
0.0
  0
LINE
  5
3EB
  8
OUTSIDE_THROUGH
 10
320.6616081568791
 20
1386.121879091263
 30
0.0
 11
271.2213882316619
 21
1392.231678012632
 31
0.0
  0
ARC
  5
3EC
  8
OUTSIDE_THROUGH
 10
261.3266215950734
 20
1393.678603445216
 30
0.0
 40
10.0
 50
268.5422771922809
 51
351.6805245399132
  0
LINE
  5
3ED
  8
OUTSIDE_THROUGH
 10
261.0722284161066
 20
1383.681839763378
 30
0.0
 11
256.2504086367526
 21
1383.865610889864
 31
0.0
  0
LINE
  5
3EE
  8
OUTSIDE_THROUGH
 10
256.2504086367526
 20
1383.865610889864
 30
0.0
 11
251.3403045341183
 21
1384.168728465429
 31
0.0
  0
LINE
  5
3EF
  8
OUTSIDE_THROUGH
 10
251.3403045341183
 20
1384.168728465429
 30
0.0
 11
246.3468014705007
 21
1384.58351508455
 31
0.0
  0
LINE
  5
3F0
  8
OUTSIDE_THROUGH
 10
246.3468014705007
 20
1384.58351508455
 30
0.0
 11
241.2747848081965
 21
1385.102293341703
 31
0.0
  0
LINE
  5
3F1
  8
OUTSIDE_THROUGH
 10
241.2747848081965
 20
1385.102293341703
 30
0.0
 11
230.9147521367166
 21
1386.421115148003
 31
0.0
  0
LINE
  5
3F2
  8
OUTSIDE_THROUGH
 10
230.9147521367166
 20
1386.421115148003
 30
0.0
 11
220.2992894180542
 21
1388.063774640136
 31
0.0
  0
LINE
  5
3F3
  8
OUTSIDE_THROUGH
 10
220.2992894180542
 20
1388.063774640136
 30
0.0
 11
198.4584054326832
 21
1392.074929705119
 31
0.0
  0
LINE
  5
3F4
  8
OUTSIDE_THROUGH
 10
198.4584054326832
 20
1392.074929705119
 30
0.0
 11
153.4311244242702
 21
1401.280845320497
 31
0.0
  0
LINE
  5
3F5
  8
OUTSIDE_THROUGH
 10
153.4311244242702
 20
1401.280845320497
 30
0.0
 11
130.8700537752355
 21
1405.492897963773
 31
0.0
  0
LINE
  5
3F6
  8
OUTSIDE_THROUGH
 10
130.8700537752355
 20
1405.492897963773
 30
0.0
 11
119.7144510588252
 21
1407.286230639626
 31
0.0
  0
LINE
  5
3F7
  8
OUTSIDE_THROUGH
 10
119.7144510588252
 20
1407.286230639626
 30
0.0
 11
108.6942472789869
 21
1408.789208559362
 31
0.0
  0
LINE
  5
3F8
  8
OUTSIDE_THROUGH
 10
108.6942472789869
 20
1408.789208559362
 30
0.0
 11
97.84852533409604
 21
1409.940412478786
 31
0.0
  0
LINE
  5
3F9
  8
OUTSIDE_THROUGH
 10
97.84852533409604
 20
1409.940412478786
 30
0.0
 11
92.50330845549823
 21
1410.36490567457
 31
0.0
  0
LINE
  5
3FA
  8
OUTSIDE_THROUGH
 10
92.50330845549823
 20
1410.36490567457
 30
0.0
 11
87.21636812252811
 21
1410.678423153704
 31
0.0
  0
LINE
  5
3FB
  8
OUTSIDE_THROUGH
 10
87.21636812252811
 20
1410.678423153704
 30
0.0
 11
81.68364763207309
 21
1410.883466763426
 31
0.0
  0
LINE
  5
3FC
  8
OUTSIDE_THROUGH
 10
81.68364763207309
 20
1410.883466763426
 30
0.0
 11
76.22200025916136
 21
1410.961273473596
 31
0.0
  0
LINE
  5
3FD
  8
OUTSIDE_THROUGH
 10
76.22200025916136
 20
1410.961273473596
 30
0.0
 11
70.83161572403148
 21
1410.917764749838
 31
0.0
  0
LINE
  5
3FE
  8
OUTSIDE_THROUGH
 10
70.83161572403148
 20
1410.917764749838
 30
0.0
 11
65.51268374692197
 21
1410.758862057777
 31
0.0
  0
LINE
  5
3FF
  8
OUTSIDE_THROUGH
 10
65.51268374692197
 20
1410.758862057777
 30
0.0
 11
60.26539404807133
 21
1410.490486863036
 31
0.0
  0
LINE
  5
400
  8
OUTSIDE_THROUGH
 10
60.26539404807133
 20
1410.490486863036
 30
0.0
 11
55.08993634771812
 21
1410.11856063124
 31
0.0
  0
LINE
  5
401
  8
OUTSIDE_THROUGH
 10
55.08993634771812
 20
1410.11856063124
 30
0.0
 11
49.98650036610086
 21
1409.649004828012
 31
0.0
  0
LINE
  5
402
  8
OUTSIDE_THROUGH
 10
49.98650036610086
 20
1409.649004828012
 30
0.0
 11
44.95527582345805
 21
1409.087740918976
 31
0.0
  0
LINE
  5
403
  8
OUTSIDE_THROUGH
 10
44.95527582345805
 20
1409.087740918976
 30
0.0
 11
39.99645244002825
 21
1408.440690369756
 31
0.0
  0
LINE
  5
404
  8
OUTSIDE_THROUGH
 10
39.99645244002825
 20
1408.440690369756
 30
0.0
 11
35.11021993604997
 21
1407.713774645977
 31
0.0
  0
LINE
  5
405
  8
OUTSIDE_THROUGH
 10
35.11021993604997
 20
1407.713774645977
 30
0.0
 11
25.55628644740211
 21
1406.044033537234
 31
0.0
  0
LINE
  5
406
  8
OUTSIDE_THROUGH
 10
25.55628644740211
 20
1406.044033537234
 30
0.0
 11
16.29499311942268
 21
1404.12588931774
 31
0.0
  0
LINE
  5
407
  8
OUTSIDE_THROUGH
 10
16.29499311942268
 20
1404.12588931774
 30
0.0
 11
7.327857714019892
 21
1402.006713712485
 31
0.0
  0
LINE
  5
408
  8
OUTSIDE_THROUGH
 10
7.327857714019892
 20
1402.006713712485
 30
0.0
 11
-1.343602006898021
 21
1399.733878446463
 31
0.0
  0
LINE
  5
409
  8
OUTSIDE_THROUGH
 10
-1.343602006898021
 20
1399.733878446463
 30
0.0
 11
-9.717868281422845
 21
1397.354755244664
 31
0.0
  0
LINE
  5
40A
  8
OUTSIDE_THROUGH
 10
-9.717868281422845
 20
1397.354755244664
 30
0.0
 11
-53.63740888745668
 21
1383.50078598211
 31
0.0
  0
LINE
  5
40B
  8
OUTSIDE_THROUGH
 10
-53.63740888745668
 20
1383.50078598211
 30
0.0
 11
-59.89434983026314
 21
1381.693753063636
 31
0.0
  0
LINE
  5
40C
  8
OUTSIDE_THROUGH
 10
-59.89434983026314
 20
1381.693753063636
 30
0.0
 11
-65.87511199019109
 21
1380.097591213257
 31
0.0
  0
LINE
  5
40D
  8
OUTSIDE_THROUGH
 10
-65.87511199019109
 20
1380.097591213257
 30
0.0
 11
-71.6113343641126
 21
1378.6978573599
 31
0.0
  0
LINE
  5
40E
  8
OUTSIDE_THROUGH
 10
-71.6113343641126
 20
1378.6978573599
 30
0.0
 11
-77.13465594889976
 21
1377.480108432493
 31
0.0
  0
LINE
  5
40F
  8
OUTSIDE_THROUGH
 10
-77.13465594889976
 20
1377.480108432493
 30
0.0
 11
-82.4767157414247
 21
1376.429901359965
 31
0.0
  0
LINE
  5
410
  8
OUTSIDE_THROUGH
 10
-82.4767157414247
 20
1376.429901359965
 30
0.0
 11
-87.66915273855949
 21
1375.532793071242
 31
0.0
  0
LINE
  5
411
  8
OUTSIDE_THROUGH
 10
-87.66915273855949
 20
1375.532793071242
 30
0.0
 11
-92.74360593717623
 21
1374.774340495254
 31
0.0
  0
LINE
  5
412
  8
OUTSIDE_THROUGH
 10
-92.74360593717623
 20
1374.774340495254
 30
0.0
 11
-97.73171433414703
 21
1374.140100560929
 31
0.0
  0
LINE
  5
413
  8
OUTSIDE_THROUGH
 10
-97.73171433414703
 20
1374.140100560929
 30
0.0
 11
-102.665116926344
 21
1373.615630197193
 31
0.0
  0
LINE
  5
414
  8
OUTSIDE_THROUGH
 10
-102.665116926344
 20
1373.615630197193
 30
0.0
 11
-107.5754527106391
 21
1373.186486332977
 31
0.0
  0
LINE
  5
415
  8
OUTSIDE_THROUGH
 10
-107.5754527106391
 20
1373.186486332977
 30
0.0
 11
-117.4534798430126
 21
1372.55640581881
 31
0.0
  0
LINE
  5
416
  8
OUTSIDE_THROUGH
 10
-117.4534798430126
 20
1372.55640581881
 30
0.0
 11
-161.827702014978
 21
1371.203991304655
 31
0.0
  0
LINE
  5
417
  8
OUTSIDE_THROUGH
 10
-161.827702014978
 20
1371.203991304655
 30
0.0
 11
-187.2718697824452
 21
1371.047329092438
 31
0.0
  0
LINE
  5
418
  8
OUTSIDE_THROUGH
 10
-187.2718697824452
 20
1371.047329092438
 30
0.0
 11
-200.3365762092765
 21
1371.303132697961
 31
0.0
  0
LINE
  5
419
  8
OUTSIDE_THROUGH
 10
-200.3365762092765
 20
1371.303132697961
 30
0.0
 11
-213.4241668822652
 21
1371.871095129308
 31
0.0
  0
LINE
  5
41A
  8
OUTSIDE_THROUGH
 10
-213.4241668822652
 20
1371.871095129308
 30
0.0
 11
-226.3804937144804
 21
1372.818268150033
 31
0.0
  0
LINE
  5
41B
  8
OUTSIDE_THROUGH
 10
-226.3804937144804
 20
1372.818268150033
 30
0.0
 11
-232.761261913132
 21
1373.455012307523
 31
0.0
  0
LINE
  5
41C
  8
OUTSIDE_THROUGH
 10
-232.761261913132
 20
1373.455012307523
 30
0.0
 11
-239.0514086189912
 21
1374.211703523691
 31
0.0
  0
LINE
  5
41D
  8
OUTSIDE_THROUGH
 10
-239.0514086189912
 20
1374.211703523691
 30
0.0
 11
-245.2403185955874
 21
1375.093474267283
 31
0.0
  0
LINE
  5
41E
  8
OUTSIDE_THROUGH
 10
-245.2403185955874
 20
1375.093474267283
 30
0.0
 11
-251.3519897040333
 21
1376.092461000264
 31
0.0
  0
LINE
  5
41F
  8
OUTSIDE_THROUGH
 10
-251.3519897040333
 20
1376.092461000264
 30
0.0
 11
-263.4742198585078
 21
1378.397632275467
 31
0.0
  0
LINE
  5
420
  8
OUTSIDE_THROUGH
 10
-263.4742198585078
 20
1378.397632275467
 30
0.0
 11
-315.4038128520845
 21
1390.084449005451
 31
0.0
  0
LINE
  5
421
  8
OUTSIDE_THROUGH
 10
-315.4038128520845
 20
1390.084449005451
 30
0.0
 11
-330.5524246147366
 21
1393.178184505961
 31
0.0
  0
LINE
  5
422
  8
OUTSIDE_THROUGH
 10
-330.5524246147366
 20
1393.178184505961
 30
0.0
 11
-347.0899399512273
 21
1396.162931897964
 31
0.0
  0
LINE
  5
423
  8
OUTSIDE_THROUGH
 10
-347.0899399512273
 20
1396.162931897964
 30
0.0
 11
-365.2137240552641
 21
1398.960003992841
 31
0.0
  0
LINE
  5
424
  8
OUTSIDE_THROUGH
 10
-365.2137240552641
 20
1398.960003992841
 30
0.0
 11
-384.8657665591144
 21
1401.531566118914
 31
0.0
  0
LINE
  5
425
  8
OUTSIDE_THROUGH
 10
-384.8657665591144
 20
1401.531566118914
 30
0.0
 11
-405.9242132046857
 21
1403.84999673374
 31
0.0
  0
LINE
  5
426
  8
OUTSIDE_THROUGH
 10
-405.9242132046857
 20
1403.84999673374
 30
0.0
 11
-428.267209733885
 21
1405.887674294878
 31
0.0
  0
LINE
  5
427
  8
OUTSIDE_THROUGH
 10
-428.267209733885
 20
1405.887674294878
 30
0.0
 11
-476.3194354107976
 21
1409.010284086319
 31
0.0
  0
LINE
  5
428
  8
OUTSIDE_THROUGH
 10
-476.3194354107976
 20
1409.010284086319
 30
0.0
 11
-528.0476095251106
 21
1410.678423153701
 31
0.0
  0
ARC
  5
429
  8
OUTSIDE_THROUGH
 10
-528.3733464237548
 20
1390.681075942812
 30
0.0
 40
20.00000000000012
 50
89.06679126333131
 51
269.0667912633313
  0
LINE
  5
42A
  8
OUTSIDE_THROUGH
 10
-528.6990833224045
 20
1370.683728731923
 30
0.0
 11
-474.8703319716476
 21
1368.183034367992
 31
0.0
  0
LINE
  5
42B
  8
OUTSIDE_THROUGH
 10
-474.8703319716476
 20
1368.183034367992
 30
0.0
 11
-441.2745278965039
 21
1365.637506619685
 31
0.0
  0
LINE
  5
42C
  8
OUTSIDE_THROUGH
 10
-441.2745278965039
 20
1365.637506619685
 30
0.0
 11
-410.0201662773135
 21
1362.497129817377
 31
0.0
  0
LINE
  5
42D
  8
OUTSIDE_THROUGH
 10
-410.0201662773135
 20
1362.497129817377
 30
0.0
 11
-378.9123835290551
 21
1358.484750327958
 31
0.0
  0
LINE
  5
42E
  8
OUTSIDE_THROUGH
 10
-378.9123835290551
 20
1358.484750327958
 30
0.0
 11
-359.1516074718493
 21
1355.352876783114
 31
0.0
  0
LINE
  5
42F
  8
OUTSIDE_THROUGH
 10
-359.1516074718265
 20
1355.35287678311
 30
0.0
 11
-355.5840055713197
 21
1374.478085873146
 31
0.0
  0
LINE
  5
430
  8
OUTSIDE_THROUGH
 10
-355.5840055713197
 20
1374.478085873146
 30
0.0
 11
-326.092720444125
 21
1368.976804063736
 31
0.0
  0
LINE
  5
431
  8
OUTSIDE_THROUGH
 10
-326.092720444125
 20
1368.976804063736
 30
0.0
 11
-329.714354796879
 21
1349.561937670028
 31
0.0
  0
LINE
  5
432
  8
OUTSIDE_THROUGH
 10
-329.714354796879
 20
1349.561937670028
 30
0.0
 11
-273.3015965867667
 21
1336.150432254753
 31
0.0
  0
LINE
  5
433
  8
OUTSIDE_THROUGH
 10
-273.3015965867667
 20
1336.150432254753
 30
0.0
 11
-263.8776606005918
 21
1334.156983707406
 31
0.0
  0
LINE
  5
434
  8
OUTSIDE_THROUGH
 10
-263.8776606005918
 20
1334.156983707406
 30
0.0
 11
-254.1894495193224
 21
1332.339190357324
 31
0.0
  0
LINE
  5
435
  8
OUTSIDE_THROUGH
 10
-254.1894495193224
 20
1332.339190357324
 30
0.0
 11
-244.2017814526058
 21
1330.754631447651
 31
0.0
  0
LINE
  5
436
  8
OUTSIDE_THROUGH
 10
-244.2017814526058
 20
1330.754631447651
 30
0.0
 11
-234.0363929393068
 21
1329.458639342551
 31
0.0
  0
LINE
  5
437
  8
OUTSIDE_THROUGH
 10
-234.0363929393068
 20
1329.458639342551
 30
0.0
 11
-223.8351754047031
 21
1328.44194159156
 31
0.0
  0
LINE
  5
438
  8
OUTSIDE_THROUGH
 10
-223.8351754047031
 20
1328.44194159156
 30
0.0
 11
-213.6621400651339
 21
1327.670631297647
 31
0.0
  0
LINE
  5
439
  8
OUTSIDE_THROUGH
 10
-213.6621400651339
 20
1327.670631297647
 30
0.0
 11
-203.5847662742825
 21
1327.11242013966
 31
0.0
  0
LINE
  5
43A
  8
OUTSIDE_THROUGH
 10
-203.5847662742825
 20
1327.11242013966
 30
0.0
 11
-183.784222798322
 21
1326.504788719693
 31
0.0
  0
LINE
  5
43B
  8
OUTSIDE_THROUGH
 10
-183.784222798322
 20
1326.504788719693
 30
0.0
 11
-132.0439677996806
 21
1326.796125116122
 31
0.0
  0
LINE
  5
43C
  8
OUTSIDE_THROUGH
 10
-132.0439677996806
 20
1326.796125116122
 30
0.0
 11
-112.6995825850282
 21
1327.339059802754
 31
0.0
  0
LINE
  5
43D
  8
OUTSIDE_THROUGH
 10
-112.6995825850282
 20
1327.339059802754
 30
0.0
 11
-104.8105219451336
 21
1327.772976767828
 31
0.0
  0
LINE
  5
43E
  8
OUTSIDE_THROUGH
 10
-104.8105219451336
 20
1327.772976767828
 30
0.0
 11
-96.7399127784704
 21
1328.408522853275
 31
0.0
  0
LINE
  5
43F
  8
OUTSIDE_THROUGH
 10
-96.7399127784704
 20
1328.408522853275
 30
0.0
 11
-88.466404328138
 21
1329.293451793661
 31
0.0
  0
LINE
  5
440
  8
OUTSIDE_THROUGH
 10
-88.466404328138
 20
1329.293451793661
 30
0.0
 11
-79.93432719290811
 21
1330.474199383104
 31
0.0
  0
LINE
  5
441
  8
OUTSIDE_THROUGH
 10
-79.93432719290811
 20
1330.474199383104
 30
0.0
 11
-71.08725735509788
 21
1331.993777594721
 31
0.0
  0
LINE
  5
442
  8
OUTSIDE_THROUGH
 10
-71.08725735509788
 20
1331.993777594721
 30
0.0
 11
-61.90988829166957
 21
1333.881652302388
 31
0.0
  0
LINE
  5
443
  8
OUTSIDE_THROUGH
 10
-61.90988829166957
 20
1333.881652302388
 30
0.0
 11
-52.37803174815831
 21
1336.159265286314
 31
0.0
  0
LINE
  5
444
  8
OUTSIDE_THROUGH
 10
-52.37803174815831
 20
1336.159265286314
 30
0.0
 11
-42.47287732071673
 21
1338.838076035408
 31
0.0
  0
LINE
  5
445
  8
OUTSIDE_THROUGH
 10
-42.47287732071673
 20
1338.838076035408
 30
0.0
 11
0.6743070647518692
 21
1351.849254213163
 31
0.0
  0
LINE
  5
446
  8
OUTSIDE_THROUGH
 10
0.6743070647518692
 20
1351.849254213163
 30
0.0
 11
11.69525097902032
 21
1354.795389942077
 31
0.0
  0
LINE
  5
447
  8
OUTSIDE_THROUGH
 10
11.69525097902032
 20
1354.795389942077
 30
0.0
 11
22.97356643319841
 21
1357.437825830974
 31
0.0
  0
LINE
  5
448
  8
OUTSIDE_THROUGH
 10
22.97356643319841
 20
1357.437825830974
 30
0.0
 11
28.7518534964719
 21
1358.622032975845
 31
0.0
  0
LINE
  5
449
  8
OUTSIDE_THROUGH
 10
28.7518534964719
 20
1358.622032975845
 30
0.0
 11
34.55367954941718
 21
1359.684562751348
 31
0.0
  0
LINE
  5
44A
  8
OUTSIDE_THROUGH
 10
34.55367954941718
 20
1359.684562751348
 30
0.0
 11
40.50746962125169
 21
1360.635472436508
 31
0.0
  0
LINE
  5
44B
  8
OUTSIDE_THROUGH
 10
40.50746962125169
 20
1360.635472436508
 30
0.0
 11
46.48258797288912
 21
1361.441139350919
 31
0.0
  0
LINE
  5
44C
  8
OUTSIDE_THROUGH
 10
46.48258797288912
 20
1361.441139350919
 30
0.0
 11
52.6068194160789
 21
1362.105877578418
 31
0.0
  0
LINE
  5
44D
  8
OUTSIDE_THROUGH
 10
52.6068194160789
 20
1362.105877578418
 30
0.0
 11
58.74685432062222
 21
1362.603000615962
 31
0.0
  0
LINE
  5
44E
  8
OUTSIDE_THROUGH
 10
58.74685432062222
 20
1362.603000615962
 30
0.0
 11
65.99632330596705
 21
1362.964474488095
 31
0.0
  0
LINE
  5
44F
  8
OUTSIDE_THROUGH
 10
65.99632330596705
 20
1362.964474488095
 30
0.0
 11
68.17015410166186
 21
1377.806120612152
 31
0.0
  0
LINE
  5
450
  8
OUTSIDE_THROUGH
 10
68.17015410166186
 20
1377.806120612152
 30
0.0
 11
87.95901560040238
 21
1374.907679551227
 31
0.0
  0
LINE
  5
451
  8
OUTSIDE_THROUGH
 10
87.95901560040238
 20
1374.907679551227
 30
0.0
 11
119.6211939983878
 21
1370.270173853756
 31
0.0
  0
LINE
  5
452
  8
OUTSIDE_THROUGH
 10
119.6211939983878
 20
1370.270173853756
 30
0.0
 11
119.7569830381726
 21
1358.293692823212
 31
0.0
  0
ARC
  5
453
  8
INSIDE_POCKET_10MM
 10
254.1917445288373
 20
1521.031418088087
 30
0.0
 40
6.999999999995398
 50
272.4534139993084
 51
355.0452443252291
  0
LINE
  5
454
  8
INSIDE_POCKET_10MM
 10
261.1655870065633
 20
1520.426834681272
 30
0.0
 11
261.4205931031902
 21
1523.368318566988
 31
0.0
  0
LINE
  5
455
  8
INSIDE_POCKET_10MM
 10
261.4205931031902
 20
1523.368318566988
 30
0.0
 11
317.5534843101423
 21
1519.4030741506
 31
0.0
  0
LINE
  5
456
  8
INSIDE_POCKET_10MM
 10
317.5534843101423
 20
1519.4030741506
 30
0.0
 11
317.3420901702493
 21
1516.410531323332
 31
0.0
  0
LINE
  5
457
  8
INSIDE_POCKET_10MM
 10
317.3420901702493
 20
1516.410531323332
 30
0.0
 11
317.11486463865
 21
1513.468650648282
 31
0.0
  0
ARC
  5
458
  8
INSIDE_POCKET_10MM
 10
115.2936821961753
 20
1530.305671992359
 30
0.0
 40
202.5222826511187
 50
352.699610129033
 51
355.2311173092395
  0
LINE
  5
459
  8
INSIDE_POCKET_10MM
 10
316.1742337499727
 20
1504.570890515499
 30
0.0
 11
316.1728197249422
 21
1504.559898260155
 31
0.0
  0
ARC
  5
45A
  8
INSIDE_POCKET_10MM
 10
263.6059683538142
 20
1511.322008655995
 30
0.0
 40
53.00000000075301
 50
270.6462631865895
 51
352.6698242283109
  0
LINE
  5
45B
  8
INSIDE_POCKET_10MM
 10
264.2037649611648
 20
1458.325380090623
 30
0.0
 11
255.1074527576329
 21
1458.223861054701
 31
0.0
  0
LINE
  5
45C
  8
INSIDE_POCKET_10MM
 10
255.1074527575984
 20
1458.2238610547
 30
0.0
 11
254.4913940035094
 21
1514.037834586601
 31
0.0
  0
LINE
  5
45D
  8
OUTSIDE_THROUGH
 10
-33.40542628680759
 20
1462.203213514136
 30
0.0
 11
-52.10150434986849
 21
1463.552869869647
 31
0.0
  0
LINE
  5
45E
  8
OUTSIDE_THROUGH
 10
-52.10150434986849
 20
1463.552869869647
 30
0.0
 11
-64.75359405151323
 21
1464.802027173694
 31
0.0
  0
LINE
  5
45F
  8
OUTSIDE_THROUGH
 10
-64.75359405151323
 20
1464.802027173694
 30
0.0
 11
-93.71405827374303
 21
1468.53448271622
 31
0.0
  0
LINE
  5
460
  8
OUTSIDE_THROUGH
 10
-93.71405827374303
 20
1468.53448271622
 30
0.0
 11
-122.0013675102955
 21
1472.551739410421
 31
0.0
  0
LINE
  5
461
  8
OUTSIDE_THROUGH
 10
-122.0013675102955
 20
1472.551739410421
 30
0.0
 11
-129.6123827737591
 21
1473.45393442175
 31
0.0
  0
LINE
  5
462
  8
OUTSIDE_THROUGH
 10
-129.6123827737591
 20
1473.45393442175
 30
0.0
 11
-136.9023496738922
 21
1474.15006068777
 31
0.0
  0
LINE
  5
463
  8
OUTSIDE_THROUGH
 10
-136.9023496738922
 20
1474.15006068777
 30
0.0
 11
-143.970965664286
 21
1474.61676987047
 31
0.0
  0
LINE
  5
464
  8
OUTSIDE_THROUGH
 10
-143.970965664286
 20
1474.61676987047
 30
0.0
 11
-147.4516639654337
 21
1474.757237323469
 31
0.0
  0
LINE
  5
465
  8
OUTSIDE_THROUGH
 10
-147.4516639654337
 20
1474.757237323469
 30
0.0
 11
-150.9343505681996
 21
1474.83266773795
 31
0.0
  0
LINE
  5
466
  8
OUTSIDE_THROUGH
 10
-150.9343505681996
 20
1474.83266773795
 30
0.0
 11
-154.4072758456748
 21
1474.839211406532
 31
0.0
  0
LINE
  5
467
  8
OUTSIDE_THROUGH
 10
-154.4072758456748
 20
1474.839211406532
 30
0.0
 11
-157.0549024849361
 21
1474.796470102755
 31
0.0
  0
LINE
  5
468
  8
OUTSIDE_THROUGH
 10
-157.0549024849361
 20
1474.796470102755
 30
0.0
 11
-161.2008733207283
 21
1474.641631124201
 31
0.0
  0
LINE
  5
469
  8
OUTSIDE_THROUGH
 10
-161.2008733207283
 20
1474.641631124201
 30
0.0
 11
-165.2700235137979
 21
1474.374073842387
 31
0.0
  0
LINE
  5
46A
  8
OUTSIDE_THROUGH
 10
-165.2700235137979
 20
1474.374073842387
 30
0.0
 11
-169.1858325935196
 21
1473.992112727845
 31
0.0
  0
LINE
  5
46B
  8
OUTSIDE_THROUGH
 10
-169.1858325935196
 20
1473.992112727845
 30
0.0
 11
-171.0348797019312
 21
1473.762997520766
 31
0.0
  0
LINE
  5
46C
  8
OUTSIDE_THROUGH
 10
-171.0348797019312
 20
1473.762997520766
 30
0.0
 11
-172.879255002553
 21
1473.499029460751
 31
0.0
  0
LINE
  5
46D
  8
OUTSIDE_THROUGH
 10
-172.879255002553
 20
1473.499029460751
 30
0.0
 11
-174.581459387311
 21
1473.220623163545
 31
0.0
  0
LINE
  5
46E
  8
OUTSIDE_THROUGH
 10
-174.581459387311
 20
1473.220623163545
 30
0.0
 11
-176.2772532815142
 21
1472.90566792057
 31
0.0
  0
LINE
  5
46F
  8
OUTSIDE_THROUGH
 10
-176.2772532815142
 20
1472.90566792057
 30
0.0
 11
-177.7940505817837
 21
1472.587965516952
 31
0.0
  0
LINE
  5
470
  8
OUTSIDE_THROUGH
 10
-177.7940505817837
 20
1472.587965516952
 30
0.0
 11
-179.3025383108429
 21
1472.233087522792
 31
0.0
  0
LINE
  5
471
  8
OUTSIDE_THROUGH
 10
-179.3025383108429
 20
1472.233087522792
 30
0.0
 11
-180.6538075090061
 21
1471.876913729393
 31
0.0
  0
LINE
  5
472
  8
OUTSIDE_THROUGH
 10
-180.6538075090061
 20
1471.876913729393
 30
0.0
 11
-181.8747236048621
 21
1471.517339753306
 31
0.0
  0
LINE
  5
473
  8
OUTSIDE_THROUGH
 10
-181.8747236048621
 20
1471.517339753306
 30
0.0
 11
-182.9629950484626
 21
1471.160655618801
 31
0.0
  0
LINE
  5
474
  8
OUTSIDE_THROUGH
 10
-182.9629950484626
 20
1471.160655618801
 30
0.0
 11
-183.9090806200377
 21
1470.815909153693
 31
0.0
  0
LINE
  5
475
  8
OUTSIDE_THROUGH
 10
-183.9090806200377
 20
1470.815909153693
 30
0.0
 11
-184.3079473717308
 21
1470.658336505565
 31
0.0
  0
LINE
  5
476
  8
OUTSIDE_THROUGH
 10
-184.3079473717308
 20
1470.658336505565
 30
0.0
 11
-184.7038467932612
 21
1470.493450081896
 31
0.0
  0
LINE
  5
477
  8
OUTSIDE_THROUGH
 10
-184.7038467932612
 20
1470.493450081896
 30
0.0
 11
-185.0235678849608
 21
1470.353308375966
 31
0.0
  0
LINE
  5
478
  8
OUTSIDE_THROUGH
 10
-185.0235678849608
 20
1470.353308375966
 30
0.0
 11
-185.3404570001538
 21
1470.206904152125
 31
0.0
  0
LINE
  5
479
  8
OUTSIDE_THROUGH
 10
-185.3404570001538
 20
1470.206904152125
 30
0.0
 11
-185.7177848304584
 21
1470.020211095467
 31
0.0
  0
LINE
  5
47A
  8
OUTSIDE_THROUGH
 10
-185.7177848304584
 20
1470.020211095467
 30
0.0
 11
-185.9115867866687
 21
1469.91734519972
 31
0.0
  0
LINE
  5
47B
  8
OUTSIDE_THROUGH
 10
-185.9115867866687
 20
1469.91734519972
 30
0.0
 11
-186.0423921910451
 21
1469.844248264196
 31
0.0
  0
LINE
  5
47C
  8
OUTSIDE_THROUGH
 10
-186.0423921910451
 20
1469.844248264196
 30
0.0
 11
-186.1715537021992
 21
1469.768263830294
 31
0.0
  0
LINE
  5
47D
  8
OUTSIDE_THROUGH
 10
-186.1715537021992
 20
1469.768263830294
 30
0.0
 11
-186.24163255231
 21
1469.724502415562
 31
0.0
  0
LINE
  5
47E
  8
OUTSIDE_THROUGH
 10
-186.24163255231
 20
1469.724502415562
 30
0.0
 11
-186.2645381246957
 21
1469.709218624422
 31
0.0
  0
LINE
  5
47F
  8
OUTSIDE_THROUGH
 10
-186.2645381246957
 20
1469.709218624422
 30
0.0
 11
-186.3210528855707
 21
1469.67064797062
 31
0.0
  0
ARC
  5
480
  8
OUTSIDE_THROUGH
 10
-197.5953432671331
 20
1486.190041918103
 30
0.0
 40
20.0
 50
124.5552187834222
 51
304.3130727592632
  0
LINE
  5
481
  8
OUTSIDE_THROUGH
 10
-208.9393477676722
 20
1502.661640562188
 30
0.0
 11
-207.7196135592999
 21
1503.470995007
 31
0.0
  0
LINE
  5
482
  8
OUTSIDE_THROUGH
 10
-207.7196135592999
 20
1503.470995007
 30
0.0
 11
-206.458608363168
 21
1504.248523753943
 31
0.0
  0
LINE
  5
483
  8
OUTSIDE_THROUGH
 10
-206.458608363168
 20
1504.248523753943
 30
0.0
 11
-205.157953164192
 21
1504.994769571898
 31
0.0
  0
LINE
  5
484
  8
OUTSIDE_THROUGH
 10
-205.157953164192
 20
1504.994769571898
 30
0.0
 11
-203.8192689472875
 21
1505.710275229747
 31
0.0
  0
LINE
  5
485
  8
OUTSIDE_THROUGH
 10
-203.8192689472875
 20
1505.710275229747
 30
0.0
 11
-202.4441766973702
 21
1506.39558349637
 31
0.0
  0
LINE
  5
486
  8
OUTSIDE_THROUGH
 10
-202.4441766973702
 20
1506.39558349637
 30
0.0
 11
-201.0342973993555
 21
1507.051237140648
 31
0.0
  0
LINE
  5
487
  8
OUTSIDE_THROUGH
 10
-201.0342973993555
 20
1507.051237140648
 30
0.0
 11
-199.5912520381591
 21
1507.677778931464
 31
0.0
  0
LINE
  5
488
  8
OUTSIDE_THROUGH
 10
-199.5912520381591
 20
1507.677778931464
 30
0.0
 11
-198.1166615986966
 21
1508.275751637698
 31
0.0
  0
LINE
  5
489
  8
OUTSIDE_THROUGH
 10
-198.1166615986966
 20
1508.275751637698
 30
0.0
 11
-196.6121470658836
 21
1508.84569802823
 31
0.0
  0
LINE
  5
48A
  8
OUTSIDE_THROUGH
 10
-196.6121470658836
 20
1508.84569802823
 30
0.0
 11
-195.0793294246357
 21
1509.388160871943
 31
0.0
  0
LINE
  5
48B
  8
OUTSIDE_THROUGH
 10
-195.0793294246357
 20
1509.388160871943
 30
0.0
 11
-193.5198296598685
 21
1509.903682937718
 31
0.0
  0
LINE
  5
48C
  8
OUTSIDE_THROUGH
 10
-193.5198296598685
 20
1509.903682937718
 30
0.0
 11
-191.9352687564975
 21
1510.392806994435
 31
0.0
  0
LINE
  5
48D
  8
OUTSIDE_THROUGH
 10
-191.9352687564975
 20
1510.392806994435
 30
0.0
 11
-190.3272676994383
 21
1510.856075810976
 31
0.0
  0
LINE
  5
48E
  8
OUTSIDE_THROUGH
 10
-190.3272676994383
 20
1510.856075810976
 30
0.0
 11
-188.6974474736066
 21
1511.294032156222
 31
0.0
  0
LINE
  5
48F
  8
OUTSIDE_THROUGH
 10
-188.6974474736066
 20
1511.294032156222
 30
0.0
 11
-185.3788334552879
 21
1512.096178508353
 31
0.0
  0
LINE
  5
490
  8
OUTSIDE_THROUGH
 10
-185.3788334552879
 20
1512.096178508353
 30
0.0
 11
-181.992394580866
 21
1512.803588201878
 31
0.0
  0
LINE
  5
491
  8
OUTSIDE_THROUGH
 10
-181.992394580866
 20
1512.803588201878
 30
0.0
 11
-178.5510987296657
 21
1513.420603387846
 31
0.0
  0
LINE
  5
492
  8
OUTSIDE_THROUGH
 10
-178.5510987296657
 20
1513.420603387846
 30
0.0
 11
-175.0679137810118
 21
1513.951566217306
 31
0.0
  0
LINE
  5
493
  8
OUTSIDE_THROUGH
 10
-175.0679137810118
 20
1513.951566217306
 30
0.0
 11
-171.5558076142289
 21
1514.400818841307
 31
0.0
  0
LINE
  5
494
  8
OUTSIDE_THROUGH
 10
-171.5558076142289
 20
1514.400818841307
 30
0.0
 11
-168.0277481086419
 21
1514.772703410899
 31
0.0
  0
LINE
  5
495
  8
OUTSIDE_THROUGH
 10
-168.0277481086419
 20
1514.772703410899
 30
0.0
 11
-164.4967031435754
 21
1515.071562077131
 31
0.0
  0
LINE
  5
496
  8
OUTSIDE_THROUGH
 10
-164.4967031435754
 20
1515.071562077131
 30
0.0
 11
-160.9756405983541
 21
1515.301736991052
 31
0.0
  0
LINE
  5
497
  8
OUTSIDE_THROUGH
 10
-160.9756405983541
 20
1515.301736991052
 30
0.0
 11
-157.4775283523029
 21
1515.467570303711
 31
0.0
  0
LINE
  5
498
  8
OUTSIDE_THROUGH
 10
-157.4775283523029
 20
1515.467570303711
 30
0.0
 11
-151.6064245659593
 21
1515.613057196513
 31
0.0
  0
LINE
  5
499
  8
OUTSIDE_THROUGH
 10
-151.6064245659593
 20
1515.613057196513
 30
0.0
 11
-145.8151787288134
 21
1515.600248976429
 31
0.0
  0
LINE
  5
49A
  8
OUTSIDE_THROUGH
 10
-145.8151787288134
 20
1515.600248976429
 30
0.0
 11
-140.079877895991
 21
1515.444194415292
 31
0.0
  0
LINE
  5
49B
  8
OUTSIDE_THROUGH
 10
-140.079877895991
 20
1515.444194415292
 30
0.0
 11
-134.3766091226187
 21
1515.159942284935
 31
0.0
  0
LINE
  5
49C
  8
OUTSIDE_THROUGH
 10
-134.3766091226187
 20
1515.159942284935
 30
0.0
 11
-122.9705159747283
 21
1514.267040403897
 31
0.0
  0
LINE
  5
49D
  8
OUTSIDE_THROUGH
 10
-122.9705159747283
 20
1514.267040403897
 30
0.0
 11
-73.84483678639387
 21
1508.577284477634
 31
0.0
  0
LINE
  5
49E
  8
OUTSIDE_THROUGH
 10
-73.84483678639387
 20
1508.577284477634
 30
0.0
 11
-59.73157254516347
 21
1507.227259268874
 31
0.0
  0
LINE
  5
49F
  8
OUTSIDE_THROUGH
 10
-59.73157254516347
 20
1507.227259268874
 30
0.0
 11
-44.4113096116857
 21
1506.149036032357
 31
0.0
  0
LINE
  5
4A0
  8
OUTSIDE_THROUGH
 10
-44.4113096116857
 20
1506.149036032357
 30
0.0
 11
-26.08384191128019
 21
1505.394233933208
 31
0.0
  0
LINE
  5
4A1
  8
OUTSIDE_THROUGH
 10
-26.08384191128019
 20
1505.394233933208
 30
0.0
 11
-2.829665040542813
 21
1505.023214072881
 31
0.0
  0
LINE
  5
4A2
  8
OUTSIDE_THROUGH
 10
-2.829665040542813
 20
1505.023214072881
 30
0.0
 11
27.27072540393056
 21
1505.096337552832
 31
0.0
  0
LINE
  5
4A3
  8
OUTSIDE_THROUGH
 10
27.27072540393056
 20
1505.096337552832
 30
0.0
 11
254.5245109872667
 21
1511.037486904524
 31
0.0
  0
ARC
  5
4A4
  8
OUTSIDE_THROUGH
 10
254.1917386742934
 20
1521.031948500213
 30
0.0
 40
10.0
 50
271.9069969775644
 51
355.0452443251965
  0
LINE
  5
4A5
  8
OUTSIDE_THROUGH
 10
264.1543707853371
 20
1520.168257919042
 30
0.0
 11
314.349541497656
 21
1516.622455874695
 31
0.0
  0
ARC
  5
4A6
  8
OUTSIDE_THROUGH
 10
110.5237489846344
 20
1530.834102157354
 30
0.0
 40
204.3206415994839
 50
352.7231824107807
 51
356.0115368294592
  0
LINE
  5
4A7
  8
OUTSIDE_THROUGH
 10
313.1987457420673
 20
1504.954181890875
 30
0.0
 11
313.1973317172024
 21
1504.94318963682
 31
0.0
  0
ARC
  5
4A8
  8
OUTSIDE_THROUGH
 10
263.605962499937
 20
1511.322539067371
 30
0.0
 40
50.0
 50
270.6462631858889
 51
352.6698242276129
  0
LINE
  5
4A9
  8
OUTSIDE_THROUGH
 10
264.1699215628569
 20
1461.325719666781
 30
0.0
 11
214.5695886515696
 21
1460.802522827438
 31
0.0
  0
LINE
  5
4AA
  8
OUTSIDE_THROUGH
 10
214.5695886515514
 20
1460.802522827437
 30
0.0
 11
214.3857073405461
 21
1480.769381452634
 31
0.0
  0
LINE
  5
4AB
  8
OUTSIDE_THROUGH
 10
214.3857073405461
 20
1480.769381452634
 30
0.0
 11
194.3865554034619
 21
1480.585202741991
 31
0.0
  0
LINE
  5
4AC
  8
OUTSIDE_THROUGH
 10
194.3865554034619
 20
1480.585202741991
 30
0.0
 11
194.5704581866676
 21
1460.616012545036
 31
0.0
  0
LINE
  5
4AD
  8
OUTSIDE_THROUGH
 10
194.5704581866675
 20
1460.616012545036
 30
0.0
 11
7.742400144170626
 21
1460.680953955749
 31
0.0
  0
LINE
  5
4AE
  8
OUTSIDE_THROUGH
 10
7.742400144170626
 20
1460.680953955749
 30
0.0
 11
-13.39543120442158
 21
1461.278943462625
 31
0.0
  0
LINE
  5
4AF
  8
OUTSIDE_THROUGH
 10
-13.39543120442158
 20
1461.278943462625
 30
0.0
 11
-11.36644240426813
 21
1481.083529618944
 31
0.0
  0
LINE
  5
4B0
  8
OUTSIDE_THROUGH
 10
-11.36644240426813
 20
1481.083529618944
 30
0.0
 11
-31.26230055220913
 21
1483.121869275879
 31
0.0
  0
LINE
  5
4B1
  8
OUTSIDE_THROUGH
 10
-31.26230055220913
 20
1483.121869275879
 30
0.0
 11
-33.4054262868076
 21
1462.203213514136
 31
0.0
  0
LINE
  5
4B2
  8
OUTSIDE_THROUGH
 10
-958.2414085116452
 20
1537.38810478802
 30
0.0
 11
-942.224713462698
 21
1541.074864914793
 31
0.0
  0
LINE
  5
4B3
  8
OUTSIDE_THROUGH
 10
-942.224713462698
 20
1541.074864914793
 30
0.0
 11
-876.1387758667204
 21
1557.501554710691
 31
0.0
  0
LINE
  5
4B4
  8
OUTSIDE_THROUGH
 10
-876.1387758667204
 20
1557.501554710691
 30
0.0
 11
-859.7033676134465
 21
1560.99747846813
 31
0.0
  0
LINE
  5
4B5
  8
OUTSIDE_THROUGH
 10
-859.7033676134465
 20
1560.99747846813
 30
0.0
 11
-851.5798189143359
 21
1562.51211215373
 31
0.0
  0
LINE
  5
4B6
  8
OUTSIDE_THROUGH
 10
-851.5798189143359
 20
1562.51211215373
 30
0.0
 11
-843.5387360167681
 21
1563.836838343459
 31
0.0
  0
LINE
  5
4B7
  8
OUTSIDE_THROUGH
 10
-843.5387360167681
 20
1563.836838343459
 30
0.0
 11
-835.5948905581376
 21
1564.945890511975
 31
0.0
  0
LINE
  5
4B8
  8
OUTSIDE_THROUGH
 10
-835.5948905581376
 20
1564.945890511975
 30
0.0
 11
-827.7630541758385
 21
1565.813502133933
 31
0.0
  0
LINE
  5
4B9
  8
OUTSIDE_THROUGH
 10
-827.7630541758385
 20
1565.813502133933
 30
0.0
 11
-822.2456878216185
 21
1566.273618880755
 31
0.0
  0
LINE
  5
4BA
  8
OUTSIDE_THROUGH
 10
-822.2456878216185
 20
1566.273618880755
 30
0.0
 11
-816.7934479017467
 21
1566.603354784683
 31
0.0
  0
LINE
  5
4BB
  8
OUTSIDE_THROUGH
 10
-816.7934479017467
 20
1566.603354784683
 30
0.0
 11
-811.4067971634508
 21
1566.808616250198
 31
0.0
  0
LINE
  5
4BC
  8
OUTSIDE_THROUGH
 10
-811.4067971634508
 20
1566.808616250198
 30
0.0
 11
-806.0861983539575
 21
1566.895309681784
 31
0.0
  0
LINE
  5
4BD
  8
OUTSIDE_THROUGH
 10
-806.0861983539575
 20
1566.895309681784
 30
0.0
 11
-800.8321142204936
 21
1566.869341483922
 31
0.0
  0
LINE
  5
4BE
  8
OUTSIDE_THROUGH
 10
-800.8321142204936
 20
1566.869341483922
 30
0.0
 11
-795.6450075102864
 21
1566.736618061095
 31
0.0
  0
LINE
  5
4BF
  8
OUTSIDE_THROUGH
 10
-795.6450075102864
 20
1566.736618061095
 30
0.0
 11
-790.5253409705629
 21
1566.503045817785
 31
0.0
  0
LINE
  5
4C0
  8
OUTSIDE_THROUGH
 10
-790.5253409705629
 20
1566.503045817785
 30
0.0
 11
-785.4735773485496
 21
1566.174531158475
 31
0.0
  0
LINE
  5
4C1
  8
OUTSIDE_THROUGH
 10
-785.4735773485496
 20
1566.174531158475
 30
0.0
 11
-780.4901793914739
 21
1565.756980487646
 31
0.0
  0
LINE
  5
4C2
  8
OUTSIDE_THROUGH
 10
-780.4901793914739
 20
1565.756980487646
 30
0.0
 11
-775.5756098465627
 21
1565.256300209782
 31
0.0
  0
LINE
  5
4C3
  8
OUTSIDE_THROUGH
 10
-775.5756098465627
 20
1565.256300209782
 30
0.0
 11
-765.9548069821412
 21
1564.029176450875
 31
0.0
  0
LINE
  5
4C4
  8
OUTSIDE_THROUGH
 10
-765.9548069821412
 20
1564.029176450875
 30
0.0
 11
-756.6148707331013
 21
1562.540411117612
 31
0.0
  0
LINE
  5
4C5
  8
OUTSIDE_THROUGH
 10
-756.6148707331013
 20
1562.540411117612
 30
0.0
 11
-747.5595030772586
 21
1560.837255445852
 31
0.0
  0
LINE
  5
4C6
  8
OUTSIDE_THROUGH
 10
-747.5595030772586
 20
1560.837255445852
 30
0.0
 11
-738.7924059924287
 21
1558.966960671453
 31
0.0
  0
LINE
  5
4C7
  8
OUTSIDE_THROUGH
 10
-738.7924059924287
 20
1558.966960671453
 30
0.0
 11
-730.3172814564274
 21
1556.976778030275
 31
0.0
  0
LINE
  5
4C8
  8
OUTSIDE_THROUGH
 10
-730.3172814564274
 20
1556.976778030275
 30
0.0
 11
-685.8052685235036
 21
1545.164106188897
 31
0.0
  0
LINE
  5
4C9
  8
OUTSIDE_THROUGH
 10
-685.8052685235036
 20
1545.164106188897
 30
0.0
 11
-679.4716115898726
 21
1543.647706578871
 31
0.0
  0
LINE
  5
4CA
  8
OUTSIDE_THROUGH
 10
-679.4716115898726
 20
1543.647706578871
 30
0.0
 11
-673.4235693179692
 21
1542.329209956388
 31
0.0
  0
LINE
  5
4CB
  8
OUTSIDE_THROUGH
 10
-673.4235693179692
 20
1542.329209956388
 30
0.0
 11
-667.6288699759816
 21
1541.195648524757
 31
0.0
  0
LINE
  5
4CC
  8
OUTSIDE_THROUGH
 10
-667.6288699759816
 20
1541.195648524757
 30
0.0
 11
-662.0552418320983
 21
1540.234054487291
 31
0.0
  0
LINE
  5
4CD
  8
OUTSIDE_THROUGH
 10
-662.0552418320983
 20
1540.234054487291
 30
0.0
 11
-656.670413154508
 21
1539.431460047301
 31
0.0
  0
LINE
  5
4CE
  8
OUTSIDE_THROUGH
 10
-656.670413154508
 20
1539.431460047301
 30
0.0
 11
-651.442112211399
 21
1538.7748974081
 31
0.0
  0
LINE
  5
4CF
  8
OUTSIDE_THROUGH
 10
-651.442112211399
 20
1538.7748974081
 30
0.0
 11
-646.33806727096
 21
1538.251398772998
 31
0.0
  0
LINE
  5
4D0
  8
OUTSIDE_THROUGH
 10
-646.33806727096
 20
1538.251398772998
 30
0.0
 11
-641.326006601379
 21
1537.847996345309
 31
0.0
  0
LINE
  5
4D1
  8
OUTSIDE_THROUGH
 10
-641.326006601379
 20
1537.847996345309
 30
0.0
 11
-636.3736584708449
 21
1537.551722328343
 31
0.0
  0
LINE
  5
4D2
  8
OUTSIDE_THROUGH
 10
-636.3736584708449
 20
1537.551722328343
 30
0.0
 11
-631.4487511475463
 21
1537.349608925412
 31
0.0
  0
LINE
  5
4D3
  8
OUTSIDE_THROUGH
 10
-631.4487511475463
 20
1537.349608925412
 30
0.0
 11
-621.5521719954088
 21
1537.175992774902
 31
0.0
  0
LINE
  5
4D4
  8
OUTSIDE_THROUGH
 10
-621.5521719954088
 20
1537.175992774902
 30
0.0
 11
-577.1628102038162
 21
1537.872540059878
 31
0.0
  0
LINE
  5
4D5
  8
OUTSIDE_THROUGH
 10
-577.1628102038162
 20
1537.872540059878
 30
0.0
 11
-551.7385146854117
 21
1538.890092918744
 31
0.0
  0
LINE
  5
4D6
  8
OUTSIDE_THROUGH
 10
-551.7385146854117
 20
1538.890092918744
 30
0.0
 11
-538.6995270044563
 21
1539.748457503159
 31
0.0
  0
LINE
  5
4D7
  8
OUTSIDE_THROUGH
 10
-538.6995270044563
 20
1539.748457503159
 30
0.0
 11
-525.652083126191
 21
1540.91970435615
 31
0.0
  0
LINE
  5
4D8
  8
OUTSIDE_THROUGH
 10
-525.652083126191
 20
1540.91970435615
 30
0.0
 11
-512.7532608635105
 21
1542.46370110166
 31
0.0
  0
LINE
  5
4D9
  8
OUTSIDE_THROUGH
 10
-512.7532608635105
 20
1542.46370110166
 30
0.0
 11
-506.4086696545439
 21
1543.394189316591
 31
0.0
  0
LINE
  5
4DA
  8
OUTSIDE_THROUGH
 10
-506.4086696545439
 20
1543.394189316591
 30
0.0
 11
-500.1601380293088
 21
1544.440315363629
 31
0.0
  0
LINE
  5
4DB
  8
OUTSIDE_THROUGH
 10
-500.1601380293088
 20
1544.440315363629
 30
0.0
 11
-493.8995372906783
 21
1545.630648280761
 31
0.0
  0
LINE
  5
4DC
  8
OUTSIDE_THROUGH
 10
-493.8995372906783
 20
1545.630648280761
 30
0.0
 11
-487.7240846869022
 21
1546.938789583161
 31
0.0
  0
LINE
  5
4DD
  8
OUTSIDE_THROUGH
 10
-487.7240846869022
 20
1546.938789583161
 30
0.0
 11
-475.4881938407074
 21
1549.867829146902
 31
0.0
  0
LINE
  5
4DE
  8
OUTSIDE_THROUGH
 10
-475.4881938407074
 20
1549.867829146902
 30
0.0
 11
-450.4934592913078
 21
1556.692258732077
 31
0.0
  0
LINE
  5
4DF
  8
OUTSIDE_THROUGH
 10
-450.4934592913078
 20
1556.692258732077
 30
0.0
 11
-474.1957557636715
 21
1663.204018144095
 31
0.0
  0
LINE
  5
4E0
  8
OUTSIDE_THROUGH
 10
-474.1957557636715
 20
1663.204018144095
 30
0.0
 11
-974.4155241250155
 21
1963.723873296003
 31
0.0
  0
LINE
  5
4E1
  8
OUTSIDE_THROUGH
 10
-974.4155241250155
 20
1963.723873296003
 30
0.0
 11
-1071.2033693741
 21
1946.45850511979
 31
0.0
  0
LINE
  5
4E2
  8
OUTSIDE_THROUGH
 10
-1071.2033693741
 20
1946.45850511979
 30
0.0
 11
-1070.13546812959
 21
1940.683506155463
 31
0.0
  0
LINE
  5
4E3
  8
OUTSIDE_THROUGH
 10
-1070.13546812959
 20
1940.683506155463
 30
0.0
 11
-1069.236459564363
 21
1934.962450658756
 31
0.0
  0
LINE
  5
4E4
  8
OUTSIDE_THROUGH
 10
-1069.236459564363
 20
1934.962450658756
 30
0.0
 11
-1068.48771816584
 21
1929.274092812491
 31
0.0
  0
LINE
  5
4E5
  8
OUTSIDE_THROUGH
 10
-1068.48771816584
 20
1929.274092812491
 30
0.0
 11
-1067.870618421443
 21
1923.597186799494
 31
0.0
  0
LINE
  5
4E6
  8
OUTSIDE_THROUGH
 10
-1067.870618421443
 20
1923.597186799494
 30
0.0
 11
-1066.956841844719
 21
1912.1927470046
 31
0.0
  0
LINE
  5
4E7
  8
OUTSIDE_THROUGH
 10
-1066.956841844719
 20
1912.1927470046
 30
0.0
 11
-1064.842299187379
 21
1862.78389772063
 31
0.0
  0
LINE
  5
4E8
  8
OUTSIDE_THROUGH
 10
-1064.842299187379
 20
1862.78389772063
 30
0.0
 11
-1063.95378393233
 21
1848.634080186519
 31
0.0
  0
LINE
  5
4E9
  8
OUTSIDE_THROUGH
 10
-1063.95378393233
 20
1848.634080186519
 30
0.0
 11
-1062.715737194458
 21
1834.409323571393
 31
0.0
  0
LINE
  5
4EA
  8
OUTSIDE_THROUGH
 10
-1062.715737194458
 20
1834.409323571393
 30
0.0
 11
-1060.806412023913
 21
1817.74489210279
 31
0.0
  0
LINE
  5
4EB
  8
OUTSIDE_THROUGH
 10
-1060.806412023913
 20
1817.74489210279
 30
0.0
 11
-1057.930759015304
 21
1797.102588799783
 31
0.0
  0
LINE
  5
4EC
  8
OUTSIDE_THROUGH
 10
-1057.930759015304
 20
1797.102588799783
 30
0.0
 11
-1053.793728763237
 21
1770.944216681443
 31
0.0
  0
LINE
  5
4ED
  8
OUTSIDE_THROUGH
 10
-1053.793728763237
 20
1770.944216681443
 30
0.0
 11
-1018.730847212542
 21
1580.386100436219
 31
0.0
  0
ARC
  5
4EE
  8
OUTSIDE_THROUGH
 10
-1006.98645618648
 20
1532.860901640322
 30
0.0
 40
48.95482857862453
 50
5.30613197372432
 51
103.8807922523404
  0
LINE
  5
4F0
  8
INSIDE_THROUGH
 10
-1046.473666968591
 20
1903.875553736065
 30
0.0
 11
-1044.178629747804
 21
1852.475720220868
 31
0.0
  0
LINE
  5
4F1
  8
INSIDE_THROUGH
 10
-1044.178629747804
 20
1852.475720220868
 30
0.0
 11
-1042.753797753085
 21
1835.792776495009
 31
0.0
  0
ARC
  5
4F2
  8
INSIDE_THROUGH
 10
-879.2248167520174
 20
1587.555307191731
 30
0.0
 40
10.00233145335951
 50
281.2688537227629
 51
103.7363920061789
  0
ARC
  5
4F3
  8
INSIDE_THROUGH
 10
-1032.841007767357
 20
1837.160530384504
 30
0.0
 40
10.00670555194288
 50
183.664115247179
 51
7.856747001205822
  0
ARC
  5
4F4
  8
INSIDE_THROUGH
 10
-707.8106978995811
 20
1582.158082294973
 30
0.0
 40
10.0000039871366
 50
254.9768069630683
 51
74.97685219839332
  0
ARC
  5
4F5
  8
INSIDE_THROUGH
 10
-834.2452730251856
 20
1126.528553459186
 30
0.0
 40
482.8463176398394
 50
74.50103401738603
 51
80.47989519383309
  0
ARC
  5
4F6
  8
INSIDE_THROUGH
 10
-755.9773700470932
 20
1592.85244958405
 30
0.0
 40
9.999990137427577
 50
80.84053850663567
 51
260.8405915039062
  0
ARC
  5
4F7
  8
INSIDE_THROUGH
 10
-834.4484301349619
 20
1125.601939510521
 30
0.0
 40
463.7942190600348
 50
74.48692104271956
 51
80.45852332650979
  0
LINE
  5
4F8
  8
INSIDE_THROUGH
 10
-1022.854757526737
 20
1837.800031858309
 30
0.0
 11
-1024.173816147547
 21
1853.112731357658
 31
0.0
  0
LINE
  5
4F9
  8
INSIDE_THROUGH
 10
-1024.173816147547
 20
1853.112731357658
 30
0.0
 11
-1025.521511224582
 21
1878.99457285892
 31
0.0
  0
LINE
  5
4FA
  8
INSIDE_THROUGH
 10
-1025.521511224582
 20
1878.99457285892
 30
0.0
 11
-1026.490177785634
 21
1904.695618976029
 31
0.0
  0
ARC
  5
4FB
  8
INSIDE_THROUGH
 10
-1036.479510429737
 20
1904.233528425553
 30
0.0
 40
10.00001471755802
 50
2.648523055973907
 51
182.6481013868359
  0
ARC
  5
4FC
  8
INSIDE_THROUGH
 10
-505.2609916147221
 20
1574.004182853878
 30
0.0
 40
9.999982546454369
 50
280.1698878316297
 51
100.1699640018648
  0
LINE
  5
4FD
  8
INSIDE_THROUGH
 10
-507.0266762733609
 20
1583.847048727983
 30
0.0
 11
-514.7903316041824
 21
1582.577820305319
 31
0.0
  0
LINE
  5
4FE
  8
INSIDE_THROUGH
 10
-514.7903316041824
 20
1582.577820305319
 30
0.0
 11
-522.1399681812121
 21
1581.576124632188
 31
0.0
  0
LINE
  5
4FF
  8
INSIDE_THROUGH
 10
-522.1399681812121
 20
1581.576124632188
 30
0.0
 11
-531.8227280155936
 21
1580.499613203059
 31
0.0
  0
LINE
  5
500
  8
INSIDE_THROUGH
 10
-531.8227280155936
 20
1580.499613203059
 30
0.0
 11
-546.8084241224033
 21
1579.267408926131
 31
0.0
  0
LINE
  5
501
  8
INSIDE_THROUGH
 10
-546.8084241224033
 20
1579.267408926131
 30
0.0
 11
-562.7010211335014
 21
1578.397511347002
 31
0.0
  0
LINE
  5
502
  8
INSIDE_THROUGH
 10
-562.7010211335014
 20
1578.397511347002
 30
0.0
 11
-578.4299673962587
 21
1577.852910526914
 31
0.0
  0
ARC
  5
503
  8
INSIDE_THROUGH
 10
-578.1594908066736
 20
1567.856572270415
 30
0.0
 40
9.999996806192705
 50
91.54990621728558
 51
271.5498525858166
  0
LINE
  5
504
  8
INSIDE_THROUGH
 10
-577.8890235741173
 20
1557.860233760743
 30
0.0
 11
-559.2877881627869
 21
1558.530839598119
 31
0.0
  0
LINE
  5
505
  8
INSIDE_THROUGH
 10
-559.2877881627869
 20
1558.530839598119
 30
0.0
 11
-548.0184445829339
 21
1559.145827334812
 31
0.0
  0
LINE
  5
506
  8
INSIDE_THROUGH
 10
-548.0184445829339
 20
1559.145827334812
 30
0.0
 11
-536.7434713487645
 21
1559.969821297821
 31
0.0
  0
LINE
  5
507
  8
INSIDE_THROUGH
 10
-536.7434713487645
 20
1559.969821297821
 30
0.0
 11
-526.6488369736082
 21
1560.924929133673
 31
0.0
  0
LINE
  5
508
  8
INSIDE_THROUGH
 10
-526.6488369736082
 20
1560.924929133673
 30
0.0
 11
-521.139689940849
 21
1561.549040429913
 31
0.0
  0
LINE
  5
509
  8
INSIDE_THROUGH
 10
-521.139689940849
 20
1561.549040429913
 30
0.0
 11
-510.381740366894
 21
1563.017065883543
 31
0.0
  0
LINE
  5
50A
  8
INSIDE_THROUGH
 10
-510.381740366894
 20
1563.017065883543
 30
0.0
 11
-503.495320041402
 21
1564.161314632442
 31
0.0
  0
ARC
  5
50B
  8
INSIDE_THROUGH
 10
-528.042197951933
 20
54.23251956375001
 30
0.0
 40
1583.023415864422
 50
102.8898660348906
 51
104.7443336074599
  0
ARC
  5
50C
  8
INSIDE_THROUGH
 10
-928.455750866201
 20
1575.440096516555
 30
0.0
 40
9.999990336853845
 50
104.3349218036809
 51
284.3361937324779
  0
ARC
  5
50D
  8
INSIDE_THROUGH
 10
-526.0344278207374
 20
46.05923232022018
 30
0.0
 40
1571.439084365019
 50
102.8996755345011
 51
104.7444864386
  0
LINE
  5
50E
  8
OUTSIDE_THROUGH
 10
75.20465616321326
 20
2598.560319789847
 30
0.0
 11
75.26190654061156
 21
2618.617325743331
 31
0.0
  0
LINE
  5
50F
  8
OUTSIDE_THROUGH
 10
75.26190654061156
 20
2618.617325743331
 30
0.0
 11
213.4411834416387
 21
2618.617325743332
 31
0.0
  0
ARC
  5
510
  8
OUTSIDE_THROUGH
 10
213.4411834416496
 20
2668.617325743332
 30
0.0
 40
50.0
 50
269.9999999999886
 51
27.4522079456039
  0
LINE
  5
511
  8
OUTSIDE_THROUGH
 10
257.8109675580763
 20
2691.667754317693
 30
0.0
 11
265.4227092631472
 21
2698.630959112685
 31
0.0
  0
ARC
  5
512
  8
OUTSIDE_THROUGH
 10
268.1226092170218
 20
2695.679596674916
 30
0.0
 40
4.0
 50
27.45220794557709
 51
132.4522079456032
  0
LINE
  5
513
  8
OUTSIDE_THROUGH
 10
271.6721919463371
 20
2697.523630960863
 30
0.0
 11
348.4977148143216
 21
2549.642134819144
 31
0.0
  0
ARC
  5
514
  8
OUTSIDE_THROUGH
 10
344.9481320850073
 20
2547.798100533195
 30
0.0
 40
4.0
 50
282.4522079456229
 51
27.45220794559856
  0
LINE
  5
515
  8
OUTSIDE_THROUGH
 10
345.8106328138556
 20
2543.892195709376
 30
0.0
 11
335.7370687327211
 21
2541.667754317696
 31
0.0
  0
ARC
  5
516
  8
OUTSIDE_THROUGH
 10
291.3672846162972
 20
2518.61732574333
 30
0.0
 40
50.0
 50
27.4522079456123
 51
90.0000000000002
  0
LINE
  5
517
  8
OUTSIDE_THROUGH
 10
291.3672846162972
 20
2568.61732574333
 30
0.0
 11
-84.6728600742108
 21
2568.617325743329
 31
0.0
  0
ARC
  5
518
  8
OUTSIDE_THROUGH
 10
-84.67286007420807
 20
2518.617325743328
 30
0.0
 40
50.0
 50
90.00000000000274
 51
169.0513130071337
  0
LINE
  5
519
  8
OUTSIDE_THROUGH
 10
-133.7627438070413
 20
2528.113815363024
 30
0.0
 11
-144.0532065676625
 21
2527.384974520387
 31
0.0
  0
ARC
  5
51A
  8
OUTSIDE_THROUGH
 10
-144.3358059475968
 20
2531.374979230967
 30
0.0
 40
4.0
 50
169.0513130071352
 51
274.0513130071491
  0
LINE
  5
51B
  8
OUTSIDE_THROUGH
 10
-148.2629966462237
 20
2532.134698400542
 30
0.0
 11
-119.6987635022115
 21
2679.79082609733
 31
0.0
  0
ARC
  5
51C
  8
OUTSIDE_THROUGH
 10
-115.7715728035864
 20
2679.031106927751
 30
0.0
 40
4.0
 50
64.05131300714685
 51
169.0513130070885
  0
LINE
  5
51D
  8
OUTSIDE_THROUGH
 10
-114.0213086904132
 20
2682.627852058301
 30
0.0
 11
-104.7450861016941
 21
2678.113815363026
 31
0.0
  0
ARC
  5
51E
  8
OUTSIDE_THROUGH
 10
-55.65520236886186
 20
2668.617325743331
 30
0.0
 40
50.0
 50
169.0513130071337
 51
270.0000000000028
  0
LINE
  5
51F
  8
OUTSIDE_THROUGH
 10
-55.65520236885914
 20
2618.61732574333
 30
0.0
 11
55.26182506575242
 21
2618.617325743332
 31
0.0
  0
LINE
  5
520
  8
OUTSIDE_THROUGH
 10
55.26182506575242
 20
2618.617325743332
 30
0.0
 11
55.20473763773862
 21
2598.617407217859
 31
0.0
  0
LINE
  5
521
  8
OUTSIDE_THROUGH
 10
55.20473763773862
 20
2598.617407217859
 30
0.0
 11
75.20465616321326
 21
2598.560319789847
 31
0.0
  0
LINE
  5
523
  8
INSIDE_POCKET_15MM
 10
-101.8275221932472
 20
2677.5526448423
 30
0.0
 11
-101.3903074266727
 21
2679.812724399796
 31
0.0
  0
LINE
  5
524
  8
INSIDE_POCKET_15MM
 10
-101.3903074266727
 20
2679.812724399796
 30
0.0
 11
-112.7364397210549
 21
2685.334029762668
 31
0.0
  0
ARC
  5
525
  8
INSIDE_POCKET_15MM
 10
-115.7994019191101
 20
2679.039725784208
 30
0.0
 40
6.999999999998289
 50
64.05131300711506
 51
169.0513130070972
  0
LINE
  5
526
  8
INSIDE_POCKET_15MM
 10
-122.6719856417049
 20
2680.369234330969
 30
0.0
 11
-151.236218785717
 21
2532.71310663418
 31
0.0
  0
ARC
  5
527
  8
INSIDE_POCKET_15MM
 10
-144.3636350631223
 20
2531.383598087425
 30
0.0
 40
7.000000000001243
 50
169.0513130071473
 51
274.0513130071498
  0
LINE
  5
528
  8
INSIDE_POCKET_15MM
 10
-143.8690861482346
 20
2524.401089843906
 30
0.0
 11
-131.2823946651697
 21
2525.292565284801
 31
0.0
  0
LINE
  5
529
  8
INSIDE_POCKET_15MM
 10
-131.2823946651697
 20
2525.292565284801
 30
0.0
 11
-130.8451798985934
 21
2527.552644842297
 31
0.0
  0
ARC
  5
52A
  8
INSIDE_POCKET_15MM
 10
-84.70068918974084
 20
2518.625944599789
 30
0.0
 40
46.99999999998996
 50
127.1830067808343
 51
169.0513130071365
  0
LINE
  5
52B
  8
INSIDE_POCKET_15MM
 10
-113.105743015547
 20
2556.071276981171
 30
0.0
 11
-96.00381488453877
 21
2644.475697685979
 31
0.0
  0
ARC
  5
52C
  8
INSIDE_POCKET_15MM
 10
-55.68303148440191
 20
2668.625944599785
 30
0.0
 40
46.99999999998419
 50
169.0513130071266
 51
210.9196192334255
  0
LINE
  5
52D
  8
INSIDE_POCKET_15MM
 10
258.9334770290034
 20
2656.924729743421
 30
0.0
 11
307.9370305608982
 21
2562.597759460255
 31
0.0
  0
ARC
  5
52E
  8
INSIDE_POCKET_15MM
 10
291.3394555007771
 20
2518.625944599787
 30
0.0
 40
46.99999999999612
 50
27.45220794561184
 51
69.32051417189268
  0
LINE
  5
52F
  8
INSIDE_POCKET_15MM
 10
333.0470525702121
 20
2540.29334745969
 30
0.0
 11
334.1082855259874
 21
2538.250579491491
 31
0.0
  0
LINE
  5
530
  8
INSIDE_POCKET_15MM
 10
334.1082855259874
 20
2538.250579491491
 30
0.0
 11
346.4296792449686
 21
2540.971385947968
 31
0.0
  0
ARC
  5
531
  8
INSIDE_POCKET_15MM
 10
344.9203029694845
 20
2547.806719389652
 30
0.0
 40
6.999999999998903
 50
282.4522079456155
 51
27.45220794559858
  0
LINE
  5
532
  8
INSIDE_POCKET_15MM
 10
351.1320727457842
 20
2551.033779390061
 30
0.0
 11
274.3065498777996
 21
2698.91527553178
 31
0.0
  0
ARC
  5
533
  8
INSIDE_POCKET_15MM
 10
268.0947801014981
 20
2695.688215531374
 30
0.0
 40
6.999999999998818
 50
27.45220794556572
 51
132.4522079456164
  0
LINE
  5
534
  8
INSIDE_POCKET_15MM
 10
263.3699551822192
 20
2700.853099797467
 30
0.0
 11
254.059718439793
 21
2692.336115427887
 31
0.0
  0
LINE
  5
535
  8
INSIDE_POCKET_15MM
 10
254.059718439793
 20
2692.336115427887
 30
0.0
 11
255.1209513955682
 21
2690.293347459688
 31
0.0
  0
ARC
  5
536
  8
INSIDE_POCKET_15MM
 10
213.4133543261669
 20
2668.625944599796
 30
0.0
 40
46.99999999996093
 50
345.5839017192902
 51
27.45220794561793
  0
ARC
  5
537
  8
INSIDE_POCKET_15MM
 10
-90.5373505158841
 20
2786.880926206561
 30
0.0
 40
73.00000000008733
 50
159.9594529895068
 51
172.230143411505
  0
LINE
  5
538
  8
INSIDE_POCKET_15MM
 10
-162.8671450759284
 20
2796.750111528284
 30
0.0
 11
-165.2670406571142
 21
2779.161632976702
 31
0.0
  0
LINE
  5
539
  8
INSIDE_POCKET_15MM
 10
-165.2670406571142
 20
2779.161632976702
 30
0.0
 11
-74.89104706073977
 21
2749.032368756385
 31
0.0
  0
LINE
  5
53A
  8
INSIDE_POCKET_15MM
 10
-74.89104706073977
 20
2749.032368756385
 30
0.0
 11
-71.00353610997718
 21
2767.046724084591
 31
0.0
  0
ARC
  5
53B
  8
INSIDE_POCKET_15MM
 10
-25.14037313108929
 20
2756.890233509672
 30
0.0
 40
46.97429104549104
 50
150.2405235024636
 51
167.5132512221899
  0
LINE
  5
53C
  8
INSIDE_POCKET_15MM
 10
-65.91954108391838
 20
2780.206397008444
 30
0.0
 11
-65.62156638262331
 21
2780.727646896254
 31
0.0
  0
LINE
  5
53D
  8
INSIDE_POCKET_15MM
 10
-65.62156638262513
 20
2780.727646896253
 30
0.0
 11
-159.1172257072549
 21
2811.896935455615
 31
0.0
  0
LINE
  5
53E
  8
INSIDE_POCKET_15MM
 10
203.2460009483266
 20
2790.461573344136
 30
0.0
 11
204.1362312539859
 21
2789.540280888661
 31
0.0
  0
ARC
  5
53F
  8
INSIDE_POCKET_15MM
 10
170.3373177840613
 20
2756.880926206581
 30
0.0
 40
46.99999999997141
 50
26.22310520155207
 51
44.01764651753085
  0
LINE
  5
540
  8
INSIDE_POCKET_15MM
 10
212.5000897342479
 20
2777.648705613005
 30
0.0
 11
220.3658495685268
 21
2761.679630074532
 31
0.0
  0
LINE
  5
541
  8
INSIDE_POCKET_15MM
 10
220.3658495685268
 20
2761.679630074532
 30
0.0
 11
309.6045862064657
 21
2795.961725350931
 31
0.0
  0
LINE
  5
542
  8
INSIDE_POCKET_15MM
 10
309.6045862064657
 20
2795.961725350931
 30
0.0
 11
303.2229558728195
 21
2812.779484648359
 31
0.0
  0
ARC
  5
543
  8
INSIDE_POCKET_15MM
 10
234.9714747852458
 20
2786.880926206478
 30
0.0
 40
73.00000000010182
 50
20.77964138397521
 51
32.64205437269905
  0
LINE
  5
544
  8
INSIDE_POCKET_15MM
 10
296.4416152880685
 20
2826.256322414999
 30
0.0
 11
203.2335273147864
 21
2790.44935480412
 31
0.0
  0
LINE
  5
545
  8
OUTSIDE_THROUGH
 10
234.9991126212644
 20
2856.871712391839
 30
0.0
 11
203.6129383410553
 21
2856.87171239184
 31
0.0
  0
LINE
  5
546
  8
OUTSIDE_THROUGH
 10
203.6129383410553
 20
2856.87171239184
 30
0.0
 11
203.6129383410562
 21
2836.87171239184
 31
0.0
  0
LINE
  5
547
  8
OUTSIDE_THROUGH
 10
203.6129383410562
 20
2836.87171239184
 30
0.0
 11
163.6129383410562
 21
2836.871712391836
 31
0.0
  0
LINE
  5
548
  8
OUTSIDE_THROUGH
 10
163.6129383410562
 20
2836.871712391836
 30
0.0
 11
163.6129383410562
 21
2856.871712391836
 31
0.0
  0
LINE
  5
549
  8
OUTSIDE_THROUGH
 10
163.612938341058
 20
2856.871712391839
 30
0.0
 11
-90.50971268003286
 21
2856.871712391839
 31
0.0
  0
ARC
  5
54A
  8
OUTSIDE_THROUGH
 10
-90.50971268003104
 20
2786.87171239184
 30
0.0
 40
70.0
 50
90.00000000000146
 51
172.230143411506
  0
LINE
  5
54B
  8
OUTSIDE_THROUGH
 10
-159.8670499293057
 20
2796.335314755123
 30
0.0
 11
-161.9306264533407
 21
2781.211668661067
 31
0.0
  0
LINE
  5
54C
  8
OUTSIDE_THROUGH
 10
-161.9306264533407
 20
2781.211668661067
 30
0.0
 11
-77.08985734562248
 21
2752.927720154592
 31
0.0
  0
LINE
  5
54D
  8
OUTSIDE_THROUGH
 10
-77.08985734562248
 20
2752.927720154592
 30
0.0
 11
-73.90669238039209
 21
2767.678121378849
 31
0.0
  0
ARC
  5
54E
  8
OUTSIDE_THROUGH
 10
-25.08844246496119
 20
2756.871712391841
 30
0.0
 40
50.0
 50
90.00000000000082
 51
167.5182764595975
  0
LINE
  5
54F
  8
OUTSIDE_THROUGH
 10
-25.0884424649621
 20
2806.871712391841
 30
0.0
 11
170.3649556199762
 21
2806.871712391838
 31
0.0
  0
ARC
  5
550
  8
OUTSIDE_THROUGH
 10
170.3649556199589
 20
2756.871712391815
 30
0.0
 40
50.00000000002383
 50
26.22310520156406
 51
89.9999999999791
  0
LINE
  5
551
  8
OUTSIDE_THROUGH
 10
215.2189683329671
 20
2778.965094739107
 30
0.0
 11
221.8744612894106
 21
2765.453104542806
 31
0.0
  0
LINE
  5
552
  8
OUTSIDE_THROUGH
 10
221.8744612894106
 20
2765.453104542806
 30
0.0
 11
305.7674047635164
 21
2797.681551398407
 31
0.0
  0
LINE
  5
553
  8
OUTSIDE_THROUGH
 10
305.7674047635164
 20
2797.681551398407
 30
0.0
 11
300.4457383216013
 21
2811.705946514098
 31
0.0
  0
ARC
  5
554
  8
OUTSIDE_THROUGH
 10
234.999112621198
 20
2786.871712391753
 30
0.0
 40
70.00000000008595
 50
20.77964138397232
 51
89.99999999994529
  0
LINE
  5
555
  8
INSIDE_POCKET_15MM
 10
257.2854026894111
 20
3028.610874582392
 30
0.0
 11
274.9634236196807
 21
2934.759353755656
 31
0.0
  0
LINE
  5
556
  8
INSIDE_POCKET_15MM
 10
274.9634236196807
 20
2934.759353755656
 30
0.0
 11
289.662120163207
 21
2934.759353755656
 31
0.0
  0
ARC
  5
557
  8
INSIDE_POCKET_15MM
 10
289.6621201632215
 20
3007.759353755554
 30
0.0
 40
72.99999999989681
 50
269.9999999999879
 51
282.3394247122403
  0
LINE
  5
558
  8
INSIDE_POCKET_15MM
 10
305.2624123058467
 20
2936.445744359803
 30
0.0
 11
308.1088049112932
 21
2937.068410307773
 31
0.0
  0
LINE
  5
559
  8
INSIDE_POCKET_15MM
 10
308.1088049112932
 20
2937.068410307773
 30
0.0
 11
289.7708219423275
 21
3034.4236288201
 31
0.0
  0
LINE
  5
55A
  8
INSIDE_POCKET_15MM
 10
289.7708219423275
 20
3034.4236288201
 30
0.0
 11
286.3770571195673
 21
3033.053508061523
 31
0.0
  0
ARC
  5
55B
  8
INSIDE_POCKET_15MM
 10
268.7880687634331
 20
3076.610499553264
 30
0.0
 40
46.97429104524964
 50
274.7168921892865
 51
291.9896199091046
  0
LINE
  5
55C
  8
INSIDE_POCKET_15MM
 10
272.6508745422325
 20
3029.79530169275
 30
0.0
 11
257.2854026894111
 21
3028.610874582392
 31
0.0
  0
ARC
  5
55D
  8
INSIDE_POCKET_15MM
 10
170.4217121873171
 20
3007.873445787503
 30
0.0
 40
4.0
 50
274.4079331484769
 51
19.40793314841595
  0
LINE
  5
55E
  8
INSIDE_POCKET_15MM
 10
170.7291405028263
 20
3003.885277306756
 30
0.0
 11
20.78034512717932
 21
2992.326461324667
 31
0.0
  0
ARC
  5
55F
  8
INSIDE_POCKET_15MM
 10
20.47291681167371
 20
2996.314629805414
 30
0.0
 40
4.0
 50
169.4079331484147
 51
274.4079331484247
  0
LINE
  5
560
  8
INSIDE_POCKET_15MM
 10
16.5410735734722
 20
2997.049890813629
 30
0.0
 11
19.00956898461754
 21
3010.250287519584
 31
0.0
  0
ARC
  5
561
  8
INSIDE_POCKET_15MM
 10
14.59450210878185
 20
3057.042457638987
 30
0.0
 40
47.00000000001388
 50
275.3901749273754
 51
319.9809291476162
  0
LINE
  5
562
  8
INSIDE_POCKET_15MM
 10
50.58853322914092
 20
3026.819457726538
 30
0.0
 11
51.3989289391684
 21
3027.784597139933
 31
0.0
  0
LINE
  5
563
  8
INSIDE_POCKET_15MM
 10
51.3989289391684
 20
3027.784597139933
 30
0.0
 11
135.037989484983
 21
3034.231921423815
 31
0.0
  0
LINE
  5
564
  8
INSIDE_POCKET_15MM
 10
135.037989484983
 20
3034.231921423815
 30
0.0
 11
135.9867279369892
 21
3033.402385020875
 31
0.0
  0
ARC
  5
565
  8
INSIDE_POCKET_15MM
 10
166.9235632672626
 20
3068.784756616723
 30
0.0
 40
46.99999999999148
 50
228.8349371492358
 51
273.4256913694924
  0
LINE
  5
566
  8
INSIDE_POCKET_15MM
 10
169.732000201604
 20
3021.868739288046
 30
0.0
 11
174.1944188194057
 21
3009.202612695076
 31
0.0
  0
ARC
  5
567
  8
OUTSIDE_THROUGH
 10
289.6591318407345
 20
3007.753914580511
 30
0.0
 40
70.0
 50
270.0000000000013
 51
282.3394247122347
  0
LINE
  5
568
  8
OUTSIDE_THROUGH
 10
289.6591318407363
 20
2937.753914580512
 30
0.0
 11
-298.761179764243
 21
2937.753914580513
 31
0.0
  0
LINE
  5
569
  8
OUTSIDE_THROUGH
 10
-298.761179764243
 20
2937.753914580513
 30
0.0
 11
-280.1655698692966
 21
2984.16731019681
 31
0.0
  0
LINE
  5
56A
  8
OUTSIDE_THROUGH
 10
-280.1655698692966
 20
2984.16731019681
 30
0.0
 11
18.43436773014309
 21
3007.18491245449
 31
0.0
  0
ARC
  5
56B
  8
OUTSIDE_THROUGH
 10
14.59151378631668
 20
3057.03701846383
 30
0.0
 40
50.0
 50
274.4079331484305
 51
319.9809291476236
  0
LINE
  5
56C
  8
OUTSIDE_THROUGH
 10
52.88303625477693
 20
3024.884890897408
 30
0.0
 11
134.0090479976907
 21
3031.13849659493
 31
0.0
  0
ARC
  5
56D
  8
OUTSIDE_THROUGH
 10
166.920574944791
 20
3068.779317441589
 30
0.0
 40
50.0
 50
228.8349371492416
 51
274.4079331484305
  0
LINE
  5
56E
  8
OUTSIDE_THROUGH
 10
170.7634288886175
 20
3018.927211432249
 30
0.0
 11
272.8863892297732
 21
3026.799368745498
 31
0.0
  0
ARC
  5
56F
  8
OUTSIDE_THROUGH
 10
268.7791428398505
 20
3076.630388473097
 30
0.0
 40
50.0
 50
274.7118669519098
 51
291.9847702895079
  0
LINE
  5
570
  8
OUTSIDE_THROUGH
 10
287.497149177344
 20
3030.266218699987
 30
0.0
 11
304.6183160871014
 21
2939.371001461199
 31
0.0
  0
LINE
  5
571
  8
INSIDE_THROUGH
 10
89.25188016185348
 20
2977.160638367554
 30
0.0
 11
174.2518801618517
 21
2977.160638367558
 31
0.0
  0
LINE
  5
572
  8
INSIDE_THROUGH
 10
174.2518801618517
 20
2977.160638367558
 30
0.0
 11
174.2518801618544
 21
2957.160638367558
 31
0.0
  0
LINE
  5
573
  8
INSIDE_THROUGH
 10
174.2518801618544
 20
2957.160638367558
 30
0.0
 11
89.25188016185348
 21
2957.160638367555
 31
0.0
  0
LINE
  5
574
  8
INSIDE_THROUGH
 10
89.25188016185348
 20
2957.160638367555
 30
0.0
 11
89.25188016185348
 21
2977.160638367554
 31
0.0
  0
LINE
  5
575
  8
OUTSIDE_THROUGH
 10
281.133185951473
 20
3135.209792509368
 30
0.0
 11
286.8765198845394
 21
3086.435948710754
 31
0.0
  0
LINE
  5
576
  8
OUTSIDE_THROUGH
 10
286.8765198845394
 20
3086.435948710754
 30
0.0
 11
-165.4925971832272
 21
3086.435948710754
 31
0.0
  0
ARC
  5
577
  8
OUTSIDE_THROUGH
 10
-165.4925971832281
 20
3156.435948710754
 30
0.0
 40
70.0
 50
257.6318577735411
 51
269.9999999999997
  0
LINE
  5
578
  8
OUTSIDE_THROUGH
 10
-180.4860541030102
 20
3088.06054195076
 30
0.0
 11
-180.1021866449546
 21
3181.565321578861
 31
0.0
  0
ARC
  5
579
  8
OUTSIDE_THROUGH
 10
-160.3746117011469
 20
3227.509013059153
 30
0.0
 40
50.0
 50
246.7619948663986
 51
264.5565361823757
  0
LINE
  5
57A
  8
OUTSIDE_THROUGH
 10
-165.11778701399
 20
3177.734498617005
 30
0.0
 11
-47.89550076185787
 21
3166.564005835751
 31
0.0
  0
ARC
  5
57B
  8
OUTSIDE_THROUGH
 10
-43.15232544901392
 20
3216.338520277899
 30
0.0
 40
50.0
 50
264.5565361823768
 51
310.1295321815801
  0
LINE
  5
57C
  8
OUTSIDE_THROUGH
 10
-10.9264349225914
 20
3178.109055466331
 30
0.0
 11
86.2529972165039
 21
3168.848511418747
 31
0.0
  0
ARC
  5
57D
  8
OUTSIDE_THROUGH
 10
125.119333180899
 20
3200.303366826184
 30
0.0
 40
50.0
 50
218.9835401831888
 51
264.5565361823677
  0
LINE
  5
57E
  8
OUTSIDE_THROUGH
 10
120.3761578680487
 20
3150.528852384037
 30
0.0
 11
281.133185951473
 21
3135.209792509368
 31
0.0
  0
ARC
  5
57F
  8
INSIDE_POCKET_15MM
 10
118.1443532948879
 20
3139.685488352845
 30
0.0
 40
4.0
 50
264.55653618238
 51
9.556536182351856
  0
LINE
  5
580
  8
INSIDE_POCKET_15MM
 10
117.7648992698614
 20
3135.703527197474
 30
0.0
 11
-48.13019830640405
 21
3151.512210419485
 31
0.0
  0
ARC
  5
581
  8
INSIDE_POCKET_15MM
 10
-47.75074428137941
 20
3155.494171574856
 30
0.0
 40
4.0
 50
159.5565361823757
 51
264.5565361824005
  0
LINE
  5
582
  8
INSIDE_POCKET_15MM
 10
-51.49881347221435
 20
3156.891303401389
 30
0.0
 11
-46.80821589661809
 21
3169.474714591257
 31
0.0
  0
ARC
  5
583
  8
INSIDE_POCKET_15MM
 10
-43.15235092652529
 20
3216.332314309119
 30
0.0
 40
46.99999999998868
 50
265.5387779613092
 51
310.1295321815865
  0
LINE
  5
584
  8
INSIDE_POCKET_15MM
 10
-12.8600138316915
 20
3180.396617386257
 30
0.0
 11
-11.89643858411455
 21
3181.208872294753
 31
0.0
  0
LINE
  5
585
  8
INSIDE_POCKET_15MM
 10
-11.89643858411455
 20
3181.208872294753
 30
0.0
 11
87.79213096053991
 21
3171.709224385846
 31
0.0
  0
LINE
  5
586
  8
INSIDE_POCKET_15MM
 10
87.79213096053991
 20
3171.709224385846
 30
0.0
 11
88.58495189685254
 21
3170.729596774425
 31
0.0
  0
ARC
  5
587
  8
INSIDE_POCKET_15MM
 10
125.1193077033895
 20
3200.297160857432
 30
0.0
 40
47.00000000001503
 50
218.9835401831981
 51
263.5742944034302
  0
LINE
  5
588
  8
INSIDE_POCKET_15MM
 10
119.8593134070234
 20
3153.592423838543
 30
0.0
 11
122.0888423425595
 21
3140.349571294049
 31
0.0
  0
LINE
  5
589
  8
INSIDE_POCKET_15MM
 10
-150.5048122319622
 20
3083.429742741987
 30
0.0
 11
-165.4926226607431
 21
3083.429742741987
 31
0.0
  0
ARC
  5
58A
  8
INSIDE_POCKET_15MM
 10
-165.4926226607331
 20
3156.429742742074
 30
0.0
 40
73.00000000008824
 50
257.6318577735486
 51
269.9999999999928
  0
LINE
  5
58B
  8
INSIDE_POCKET_15MM
 10
-181.1286563056583
 20
3085.123961406564
 30
0.0
 11
-183.4960038623831
 21
3085.643076762331
 31
0.0
  0
LINE
  5
58C
  8
INSIDE_POCKET_15MM
 10
-183.4960038623831
 20
3085.643076762331
 30
0.0
 11
-183.0835786091784
 21
3186.104138529963
 31
0.0
  0
LINE
  5
58D
  8
INSIDE_POCKET_15MM
 10
-183.0835786091784
 20
3186.104138529963
 30
0.0
 11
-178.9185576258524
 21
3184.315737098913
 31
0.0
  0
ARC
  5
58E
  8
INSIDE_POCKET_15MM
 10
-160.3746371786747
 20
3227.50280709034
 30
0.0
 40
46.99999999995359
 50
246.7619948663902
 51
264.5565361823867
  0
LINE
  5
58F
  8
INSIDE_POCKET_15MM
 10
-164.8332219727345
 20
3180.714763514766
 30
0.0
 11
-150.1111850613597
 21
3179.311852751791
 31
0.0
  0
LINE
  5
590
  8
INSIDE_POCKET_15MM
 10
-150.1111850613597
 20
3179.311852751791
 30
0.0
 11
-150.5048122319622
 21
3083.429742741987
 31
0.0
  0
LINE
  5
592
  8
DEFAULT
 10
-415.893069710778
 20
3015.980482811221
 30
0.0
 11
-421.6804046565394
 21
3017.430267785733
 31
0.0
  0
LINE
  5
593
  8
DEFAULT
 10
-495.5213287120005
 20
2981.715150149847
 30
0.0
 11
-489.2344752466124
 21
2997.406714918045
 31
0.0
  0
LINE
  5
594
  8
DEFAULT
 10
-489.2344752466124
 20
2997.406714918045
 30
0.0
 11
-492.9266081332471
 21
2998.885974556961
 31
0.0
  0
LINE
  5
595
  8
DEFAULT
 10
-492.9266081332471
 20
2998.885974556961
 30
0.0
 11
-499.2134615986342
 21
2983.194409788763
 31
0.0
  0
LINE
  5
596
  8
DEFAULT
 10
-499.2134615986342
 20
2983.194409788763
 30
0.0
 11
-495.5213287120005
 21
2981.715150149847
 31
0.0
  0
LINE
  5
597
  8
DEFAULT
 10
-531.4946747004569
 20
2913.000000000001
 30
0.0
 11
-522.2051929402714
 21
2913.000000000001
 31
0.0
  0
LINE
  5
598
  8
DEFAULT
 10
-443.6762958286536
 20
2982.181743295033
 30
0.0
 11
-444.4252981255941
 21
2984.866151446679
 31
0.0
  0
LINE
  5
599
  8
DEFAULT
 10
-444.4252981255941
 20
2984.866151446679
 30
0.0
 11
-444.561600132512
 21
2985.432635069326
 31
0.0
  0
LINE
  5
59A
  8
DEFAULT
 10
-444.561600132512
 20
2985.432635069326
 30
0.0
 11
-444.6857568125536
 21
2986.003850451779
 31
0.0
  0
LINE
  5
59B
  8
DEFAULT
 10
-444.6857568125536
 20
2986.003850451779
 30
0.0
 11
-444.7966546342826
 21
2986.578320303293
 31
0.0
  0
LINE
  5
59C
  8
DEFAULT
 10
-444.7966546342826
 20
2986.578320303293
 30
0.0
 11
-444.8931800662627
 21
2987.154567333127
 31
0.0
  0
LINE
  5
59D
  8
DEFAULT
 10
-444.8931800662627
 20
2987.154567333127
 30
0.0
 11
-444.9742195770576
 21
2987.731114250535
 31
0.0
  0
LINE
  5
59E
  8
DEFAULT
 10
-444.9742195770576
 20
2987.731114250535
 30
0.0
 11
-445.0386596352312
 21
2988.306483764776
 31
0.0
  0
LINE
  5
59F
  8
DEFAULT
 10
-445.0386596352312
 20
2988.306483764776
 30
0.0
 11
-445.0853867093472
 21
2988.879198585105
 31
0.0
  0
LINE
  5
5A0
  8
DEFAULT
 10
-445.0853867093472
 20
2988.879198585105
 30
0.0
 11
-445.1132872679692
 21
2989.44778142078
 31
0.0
  0
LINE
  5
5A1
  8
DEFAULT
 10
-445.1132872679692
 20
2989.44778142078
 30
0.0
 11
-445.1198296253962
 21
2989.730061691014
 31
0.0
  0
LINE
  5
5A2
  8
DEFAULT
 10
-445.1198296253962
 20
2989.730061691014
 30
0.0
 11
-445.1212477796611
 21
2990.010754981056
 31
0.0
  0
LINE
  5
5A3
  8
DEFAULT
 10
-445.1212477796611
 20
2990.010754981056
 30
0.0
 11
-445.1174025393344
 21
2990.289676629563
 31
0.0
  0
LINE
  5
5A4
  8
DEFAULT
 10
-445.1174025393344
 20
2990.289676629563
 30
0.0
 11
-445.1081547129866
 21
2990.566641975191
 31
0.0
  0
LINE
  5
5A5
  8
DEFAULT
 10
-445.1081547129866
 20
2990.566641975191
 30
0.0
 11
-445.0933651091882
 21
2990.841466356598
 31
0.0
  0
LINE
  5
5A6
  8
DEFAULT
 10
-445.0933651091882
 20
2990.841466356598
 30
0.0
 11
-445.0728945365096
 21
2991.113965112441
 31
0.0
  0
LINE
  5
5A7
  8
DEFAULT
 10
-445.0728945365096
 20
2991.113965112441
 30
0.0
 11
-445.0466038035212
 21
2991.383953581377
 31
0.0
  0
LINE
  5
5A8
  8
DEFAULT
 10
-445.0466038035212
 20
2991.383953581377
 30
0.0
 11
-445.0143537187937
 21
2991.651247102062
 31
0.0
  0
LINE
  5
5A9
  8
DEFAULT
 10
-445.0143537187937
 20
2991.651247102062
 30
0.0
 11
-444.9760050908974
 21
2991.915661013155
 31
0.0
  0
LINE
  5
5AA
  8
DEFAULT
 10
-444.9760050908974
 20
2991.915661013155
 30
0.0
 11
-444.9314187284027
 21
2992.177010653312
 31
0.0
  0
LINE
  5
5AB
  8
DEFAULT
 10
-444.9314187284027
 20
2992.177010653312
 30
0.0
 11
-444.8804554398802
 21
2992.43511136119
 31
0.0
  0
LINE
  5
5AC
  8
DEFAULT
 10
-444.8804554398802
 20
2992.43511136119
 30
0.0
 11
-444.8229760339004
 21
2992.689778475446
 31
0.0
  0
LINE
  5
5AD
  8
DEFAULT
 10
-444.8229760339004
 20
2992.689778475446
 30
0.0
 11
-444.7588413190336
 21
2992.940827334739
 31
0.0
  0
LINE
  5
5AE
  8
DEFAULT
 10
-444.7588413190336
 20
2992.940827334739
 30
0.0
 11
-444.6879121038504
 21
2993.188073277723
 31
0.0
  0
LINE
  5
5AF
  8
DEFAULT
 10
-444.6879121038504
 20
2993.188073277723
 30
0.0
 11
-444.6100491969213
 21
2993.431331643057
 31
0.0
  0
LINE
  5
5B0
  8
DEFAULT
 10
-444.6100491969213
 20
2993.431331643057
 30
0.0
 11
-444.5251134068166
 21
2993.670417769396
 31
0.0
  0
LINE
  5
5B1
  8
DEFAULT
 10
-444.5251134068166
 20
2993.670417769396
 30
0.0
 11
-444.4329892044319
 21
2993.905173607835
 31
0.0
  0
LINE
  5
5B2
  8
DEFAULT
 10
-444.4329892044319
 20
2993.905173607835
 30
0.0
 11
-444.3336557099626
 21
2994.135547559199
 31
0.0
  0
LINE
  5
5B3
  8
DEFAULT
 10
-444.3336557099626
 20
2994.135547559199
 30
0.0
 11
-444.227115705929
 21
2994.361514636753
 31
0.0
  0
LINE
  5
5B4
  8
DEFAULT
 10
-444.227115705929
 20
2994.361514636753
 30
0.0
 11
-444.1133719748517
 21
2994.583049853758
 31
0.0
  0
LINE
  5
5B5
  8
DEFAULT
 10
-444.1133719748517
 20
2994.583049853758
 30
0.0
 11
-443.9924272992509
 21
2994.800128223479
 31
0.0
  0
LINE
  5
5B6
  8
DEFAULT
 10
-443.9924272992509
 20
2994.800128223479
 30
0.0
 11
-443.8642844616471
 21
2995.012724759177
 31
0.0
  0
LINE
  5
5B7
  8
DEFAULT
 10
-443.8642844616471
 20
2995.012724759177
 30
0.0
 11
-443.7289462445606
 21
2995.220814474115
 31
0.0
  0
LINE
  5
5B8
  8
DEFAULT
 10
-443.7289462445606
 20
2995.220814474115
 30
0.0
 11
-443.5864154305118
 21
2995.424372381557
 31
0.0
  0
LINE
  5
5B9
  8
DEFAULT
 10
-443.5864154305118
 20
2995.424372381557
 30
0.0
 11
-443.4366948020212
 21
2995.623373494764
 31
0.0
  0
LINE
  5
5BA
  8
DEFAULT
 10
-443.4366948020212
 20
2995.623373494764
 30
0.0
 11
-443.2797871416091
 21
2995.817792827
 31
0.0
  0
LINE
  5
5BB
  8
DEFAULT
 10
-443.2797871416091
 20
2995.817792827
 30
0.0
 11
-443.115695231796
 21
2996.007605391528
 31
0.0
  0
LINE
  5
5BC
  8
DEFAULT
 10
-443.115695231796
 20
2996.007605391528
 30
0.0
 11
-442.9444218551022
 21
2996.192786201609
 31
0.0
  0
LINE
  5
5BD
  8
DEFAULT
 10
-442.9444218551022
 20
2996.192786201609
 30
0.0
 11
-442.7659697940481
 21
2996.373310270507
 31
0.0
  0
LINE
  5
5BE
  8
DEFAULT
 10
-442.7659697940481
 20
2996.373310270507
 30
0.0
 11
-442.5803418311541
 21
2996.549152611485
 31
0.0
  0
LINE
  5
5BF
  8
DEFAULT
 10
-442.5803418311541
 20
2996.549152611485
 30
0.0
 11
-442.3875407489406
 21
2996.720288237806
 31
0.0
  0
LINE
  5
5C0
  8
DEFAULT
 10
-442.3875407489406
 20
2996.720288237806
 30
0.0
 11
-442.1875693299281
 21
2996.886692162732
 31
0.0
  0
LINE
  5
5C1
  8
DEFAULT
 10
-442.1875693299281
 20
2996.886692162732
 30
0.0
 11
-441.9804303566369
 21
2997.048339399526
 31
0.0
  0
LINE
  5
5C2
  8
DEFAULT
 10
-441.9804303566369
 20
2997.048339399526
 30
0.0
 11
-441.7661266115874
 21
2997.205204961451
 31
0.0
  0
LINE
  5
5C3
  8
DEFAULT
 10
-441.7661266115874
 20
2997.205204961451
 30
0.0
 11
-441.5446608772999
 21
2997.35726386177
 31
0.0
  0
LINE
  5
5C4
  8
DEFAULT
 10
-441.5446608772999
 20
2997.35726386177
 30
0.0
 11
-441.316035936295
 21
2997.504491113745
 31
0.0
  0
LINE
  5
5C5
  8
DEFAULT
 10
-441.316035936295
 20
2997.504491113745
 30
0.0
 11
-441.0802545710929
 21
2997.64686173064
 31
0.0
  0
LINE
  5
5C6
  8
DEFAULT
 10
-441.0802545710929
 20
2997.64686173064
 30
0.0
 11
-440.8373195642141
 21
2997.784350725716
 31
0.0
  0
LINE
  5
5C7
  8
DEFAULT
 10
-440.8373195642141
 20
2997.784350725716
 30
0.0
 11
-440.587233698179
 21
2997.916933112237
 31
0.0
  0
LINE
  5
5C8
  8
DEFAULT
 10
-440.587233698179
 20
2997.916933112237
 30
0.0
 11
-440.329999755508
 21
2998.044583903466
 31
0.0
  0
LINE
  5
5C9
  8
DEFAULT
 10
-440.329999755508
 20
2998.044583903466
 30
0.0
 11
-440.0656205187214
 21
2998.167278112664
 31
0.0
  0
LINE
  5
5CA
  8
DEFAULT
 10
-440.0656205187214
 20
2998.167278112664
 30
0.0
 11
-439.7940987703398
 21
2998.284990753096
 31
0.0
  0
LINE
  5
5CB
  8
DEFAULT
 10
-439.7940987703398
 20
2998.284990753096
 30
0.0
 11
-439.5154372928833
 21
2998.397696838023
 31
0.0
  0
LINE
  5
5CC
  8
DEFAULT
 10
-439.5154372928833
 20
2998.397696838023
 30
0.0
 11
-439.2296388688727
 21
2998.50537138071
 31
0.0
  0
LINE
  5
5CD
  8
DEFAULT
 10
-439.2296388688727
 20
2998.50537138071
 30
0.0
 11
-438.9367062808279
 21
2998.607989394417
 31
0.0
  0
LINE
  5
5CE
  8
DEFAULT
 10
-438.9367062808279
 20
2998.607989394417
 30
0.0
 11
-438.6366423112697
 21
2998.705525892409
 31
0.0
  0
LINE
  5
5CF
  8
DEFAULT
 10
-438.6366423112697
 20
2998.705525892409
 30
0.0
 11
-438.3294497427183
 21
2998.797955887948
 31
0.0
  0
LINE
  5
5D0
  8
DEFAULT
 10
-438.3294497427183
 20
2998.797955887948
 30
0.0
 11
-438.0151313576941
 21
2998.885254394297
 31
0.0
  0
LINE
  5
5D1
  8
DEFAULT
 10
-438.0151313576941
 20
2998.885254394297
 30
0.0
 11
-437.4141988182726
 21
2999.034828555883
 31
0.0
  0
LINE
  5
5D2
  8
DEFAULT
 10
-437.4141988182726
 20
2999.034828555883
 30
0.0
 11
-435.5325293480614
 21
2999.451965342229
 31
0.0
  0
LINE
  5
5D3
  8
DEFAULT
 10
-435.5325293480614
 20
2999.451965342229
 30
0.0
 11
-434.9017694830364
 21
2999.605457906768
 31
0.0
  0
LINE
  5
5D4
  8
DEFAULT
 10
-434.9017694830364
 20
2999.605457906768
 30
0.0
 11
-434.5895661398683
 21
2999.68912761731
 31
0.0
  0
LINE
  5
5D5
  8
DEFAULT
 10
-434.5895661398683
 20
2999.68912761731
 30
0.0
 11
-434.2806182183813
 21
2999.778661723463
 31
0.0
  0
LINE
  5
5D6
  8
DEFAULT
 10
-434.2806182183813
 20
2999.778661723463
 30
0.0
 11
-433.9757789901636
 21
2999.874996807798
 31
0.0
  0
LINE
  5
5D7
  8
DEFAULT
 10
-433.9757789901636
 20
2999.874996807798
 30
0.0
 11
-433.6759017268041
 21
2999.979069452885
 31
0.0
  0
LINE
  5
5D8
  8
DEFAULT
 10
-433.6759017268041
 20
2999.979069452885
 30
0.0
 11
-433.3818396998911
 21
3000.091816241295
 31
0.0
  0
LINE
  5
5D9
  8
DEFAULT
 10
-433.3818396998911
 20
3000.091816241295
 30
0.0
 11
-433.2372560474735
 21
3000.151735121301
 31
0.0
  0
LINE
  5
5DA
  8
DEFAULT
 10
-433.2372560474735
 20
3000.151735121301
 30
0.0
 11
-433.0944461810132
 21
3000.2141737556
 31
0.0
  0
LINE
  5
5DB
  8
DEFAULT
 10
-476.0456942839874
 20
2990.483834054805
 30
0.0
 11
-474.8051770481334
 21
2990.823536776353
 31
0.0
  0
LINE
  5
5DC
  8
DEFAULT
 10
-474.8051770481334
 20
2990.823536776353
 30
0.0
 11
-473.5501010042871
 21
2991.129570503009
 31
0.0
  0
LINE
  5
5DD
  8
DEFAULT
 10
-473.5501010042871
 20
2991.129570503009
 30
0.0
 11
-472.2861053576765
 21
2991.398219117685
 31
0.0
  0
LINE
  5
5DE
  8
DEFAULT
 10
-472.2861053576765
 20
2991.398219117685
 30
0.0
 11
-471.0188293135303
 21
2991.625766503291
 31
0.0
  0
LINE
  5
5DF
  8
DEFAULT
 10
-471.0188293135303
 20
2991.625766503291
 30
0.0
 11
-470.2926335751295
 21
2991.736264523236
 31
0.0
  0
LINE
  5
5E0
  8
DEFAULT
 10
-470.2926335751295
 20
2991.736264523236
 30
0.0
 11
-469.5704677169141
 21
2991.830788680759
 31
0.0
  0
LINE
  5
5E1
  8
DEFAULT
 10
-469.5704677169141
 20
2991.830788680759
 30
0.0
 11
-468.8555847746965
 21
2991.908125156527
 31
0.0
  0
LINE
  5
5E2
  8
DEFAULT
 10
-468.8555847746965
 20
2991.908125156527
 30
0.0
 11
-468.1512377842892
 21
2991.967060131207
 31
0.0
  0
LINE
  5
5E3
  8
DEFAULT
 10
-468.1512377842892
 20
2991.967060131207
 30
0.0
 11
-467.4606797815043
 21
2992.006379785466
 31
0.0
  0
LINE
  5
5E4
  8
DEFAULT
 10
-467.4606797815043
 20
2992.006379785466
 30
0.0
 11
-466.7871638021544
 21
2992.024870299972
 31
0.0
  0
LINE
  5
5E5
  8
DEFAULT
 10
-466.7871638021544
 20
2992.024870299972
 30
0.0
 11
-466.1339428820518
 21
2992.02131785539
 31
0.0
  0
LINE
  5
5E6
  8
DEFAULT
 10
-466.1339428820518
 20
2992.02131785539
 30
0.0
 11
-465.8159596429095
 21
2992.010896204901
 31
0.0
  0
LINE
  5
5E7
  8
DEFAULT
 10
-465.8159596429095
 20
2992.010896204901
 30
0.0
 11
-465.5042700570087
 21
2991.99450863239
 31
0.0
  0
LINE
  5
5E8
  8
DEFAULT
 10
-465.5042700570087
 20
2991.99450863239
 30
0.0
 11
-465.199280753826
 21
2991.972003410441
 31
0.0
  0
LINE
  5
5E9
  8
DEFAULT
 10
-465.199280753826
 20
2991.972003410441
 30
0.0
 11
-464.9013983628378
 21
2991.943228811636
 31
0.0
  0
LINE
  5
5EA
  8
DEFAULT
 10
-464.9013983628378
 20
2991.943228811636
 30
0.0
 11
-464.6110295135206
 21
2991.90803310856
 31
0.0
  0
LINE
  5
5EB
  8
DEFAULT
 10
-464.6110295135206
 20
2991.90803310856
 30
0.0
 11
-464.3285808353511
 21
2991.866264573797
 31
0.0
  0
LINE
  5
5EC
  8
DEFAULT
 10
-464.3285808353511
 20
2991.866264573797
 30
0.0
 11
-464.0544589578058
 21
2991.817771479929
 31
0.0
  0
LINE
  5
5ED
  8
DEFAULT
 10
-464.0544589578058
 20
2991.817771479929
 30
0.0
 11
-463.7890705103612
 21
2991.762402099539
 31
0.0
  0
LINE
  5
5EE
  8
DEFAULT
 10
-463.7890705103612
 20
2991.762402099539
 30
0.0
 11
-463.5328221224938
 21
2991.700004705211
 31
0.0
  0
LINE
  5
5EF
  8
DEFAULT
 10
-463.5328221224938
 20
2991.700004705211
 30
0.0
 11
-463.4082525226131
 21
2991.666123088003
 31
0.0
  0
LINE
  5
5F0
  8
DEFAULT
 10
-463.4082525226131
 20
2991.666123088003
 30
0.0
 11
-463.2861204236804
 21
2991.630427569529
 31
0.0
  0
LINE
  5
5F1
  8
DEFAULT
 10
-463.2861204236804
 20
2991.630427569529
 30
0.0
 11
-463.1664766543802
 21
2991.592899183863
 31
0.0
  0
LINE
  5
5F2
  8
DEFAULT
 10
-463.1664766543802
 20
2991.592899183863
 30
0.0
 11
-463.0493720433973
 21
2991.553518965076
 31
0.0
  0
LINE
  5
5F3
  8
DEFAULT
 10
-463.0493720433973
 20
2991.553518965076
 30
0.0
 11
-462.9348574194159
 21
2991.512267947242
 31
0.0
  0
LINE
  5
5F4
  8
DEFAULT
 10
-462.9348574194159
 20
2991.512267947242
 30
0.0
 11
-462.822983611121
 21
2991.469127164435
 31
0.0
  0
LINE
  5
5F5
  8
DEFAULT
 10
-462.822983611121
 20
2991.469127164435
 30
0.0
 11
-462.7138014471969
 21
2991.424077650726
 31
0.0
  0
LINE
  5
5F6
  8
DEFAULT
 10
-462.7138014471969
 20
2991.424077650726
 30
0.0
 11
-462.6073617563281
 21
2991.37710044019
 31
0.0
  0
LINE
  5
5F7
  8
DEFAULT
 10
-462.6073617563281
 20
2991.37710044019
 30
0.0
 11
-462.5037153671994
 21
2991.328176566898
 31
0.0
  0
LINE
  5
5F8
  8
DEFAULT
 10
-462.5037153671994
 20
2991.328176566898
 30
0.0
 11
-462.4029131084953
 21
2991.277287064924
 31
0.0
  0
LINE
  5
5F9
  8
DEFAULT
 10
-462.4029131084953
 20
2991.277287064924
 30
0.0
 11
-462.3050058089004
 21
2991.22441296834
 31
0.0
  0
LINE
  5
5FA
  8
DEFAULT
 10
-462.3050058089004
 20
2991.22441296834
 30
0.0
 11
-462.2100442970991
 21
2991.16953531122
 31
0.0
  0
LINE
  5
5FB
  8
DEFAULT
 10
-462.2100442970991
 20
2991.16953531122
 30
0.0
 11
-462.1180794017761
 21
2991.112635127636
 31
0.0
  0
LINE
  5
5FC
  8
DEFAULT
 10
-462.1180794017761
 20
2991.112635127636
 30
0.0
 11
-462.0291619516159
 21
2991.053693451662
 31
0.0
  0
LINE
  5
5FD
  8
DEFAULT
 10
-462.0291619516159
 20
2991.053693451662
 30
0.0
 11
-461.9433427753032
 21
2990.99269131737
 31
0.0
  0
LINE
  5
5FE
  8
DEFAULT
 10
-461.9433427753032
 20
2990.99269131737
 30
0.0
 11
-461.8606727015224
 21
2990.929609758834
 31
0.0
  0
LINE
  5
5FF
  8
DEFAULT
 10
-461.8606727015224
 20
2990.929609758834
 30
0.0
 11
-461.8205344620455
 21
2990.897283268621
 31
0.0
  0
LINE
  5
600
  8
DEFAULT
 10
-461.8205344620455
 20
2990.897283268621
 30
0.0
 11
-461.7812025589582
 21
2990.864429810125
 31
0.0
  0
LINE
  5
601
  8
DEFAULT
 10
-461.7812025589582
 20
2990.864429810125
 30
0.0
 11
-461.7426833458462
 21
2990.831047012603
 31
0.0
  0
LINE
  5
602
  8
DEFAULT
 10
-461.7426833458462
 20
2990.831047012603
 30
0.0
 11
-461.7049831762951
 21
2990.797132505317
 31
0.0
  0
LINE
  5
603
  8
DEFAULT
 10
-461.7049831762951
 20
2990.797132505317
 30
0.0
 11
-461.6575806343467
 21
2990.752610908108
 31
0.0
  0
LINE
  5
604
  8
DEFAULT
 10
-461.6575806343467
 20
2990.752610908108
 30
0.0
 11
-461.6115332694872
 21
2990.707208739911
 31
0.0
  0
LINE
  5
605
  8
DEFAULT
 10
-461.6115332694872
 20
2990.707208739911
 30
0.0
 11
-461.5668236438825
 21
2990.660933592334
 31
0.0
  0
LINE
  5
606
  8
DEFAULT
 10
-461.5668236438825
 20
2990.660933592334
 30
0.0
 11
-461.523434319699
 21
2990.613793056986
 31
0.0
  0
LINE
  5
607
  8
DEFAULT
 10
-461.523434319699
 20
2990.613793056986
 30
0.0
 11
-461.4813478591028
 21
2990.565794725476
 31
0.0
  0
LINE
  5
608
  8
DEFAULT
 10
-461.4813478591028
 20
2990.565794725476
 30
0.0
 11
-461.4405468242601
 21
2990.516946189412
 31
0.0
  0
LINE
  5
609
  8
DEFAULT
 10
-461.4405468242601
 20
2990.516946189412
 30
0.0
 11
-461.4010137773371
 21
2990.467255040403
 31
0.0
  0
LINE
  5
60A
  8
DEFAULT
 10
-461.4010137773371
 20
2990.467255040403
 30
0.0
 11
-461.3627312805
 21
2990.416728870058
 31
0.0
  0
LINE
  5
60B
  8
DEFAULT
 10
-461.3627312805
 20
2990.416728870058
 30
0.0
 11
-461.325681895915
 21
2990.365375269986
 31
0.0
  0
LINE
  5
60C
  8
DEFAULT
 10
-461.325681895915
 20
2990.365375269986
 30
0.0
 11
-461.2898481857482
 21
2990.313201831794
 31
0.0
  0
LINE
  5
60D
  8
DEFAULT
 10
-461.2898481857482
 20
2990.313201831794
 30
0.0
 11
-461.2552127121659
 21
2990.260216147092
 31
0.0
  0
LINE
  5
60E
  8
DEFAULT
 10
-461.2552127121659
 20
2990.260216147092
 30
0.0
 11
-461.2217580373342
 21
2990.206425807489
 31
0.0
  0
LINE
  5
60F
  8
DEFAULT
 10
-461.2217580373342
 20
2990.206425807489
 30
0.0
 11
-461.1894667234194
 21
2990.151838404593
 31
0.0
  0
LINE
  5
610
  8
DEFAULT
 10
-461.1894667234194
 20
2990.151838404593
 30
0.0
 11
-461.1583213325877
 21
2990.096461530012
 31
0.0
  0
LINE
  5
611
  8
DEFAULT
 10
-461.1583213325877
 20
2990.096461530012
 30
0.0
 11
-461.1283044270051
 21
2990.040302775356
 31
0.0
  0
LINE
  5
612
  8
DEFAULT
 10
-461.1283044270051
 20
2990.040302775356
 30
0.0
 11
-461.099398568838
 21
2989.983369732233
 31
0.0
  0
LINE
  5
613
  8
DEFAULT
 10
-461.099398568838
 20
2989.983369732233
 30
0.0
 11
-461.0715863202524
 21
2989.925669992252
 31
0.0
  0
LINE
  5
614
  8
DEFAULT
 10
-461.0715863202524
 20
2989.925669992252
 30
0.0
 11
-461.0448502434147
 21
2989.86721114702
 31
0.0
  0
LINE
  5
615
  8
DEFAULT
 10
-461.0448502434147
 20
2989.86721114702
 30
0.0
 11
-461.0191729004909
 21
2989.808000788148
 31
0.0
  0
LINE
  5
616
  8
DEFAULT
 10
-461.0191729004909
 20
2989.808000788148
 30
0.0
 11
-460.9945368536473
 21
2989.748046507244
 31
0.0
  0
LINE
  5
617
  8
DEFAULT
 10
-460.9945368536473
 20
2989.748046507244
 30
0.0
 11
-460.9709246650501
 21
2989.687355895916
 31
0.0
  0
LINE
  5
618
  8
DEFAULT
 10
-460.9709246650501
 20
2989.687355895916
 30
0.0
 11
-460.9483188968655
 21
2989.625936545774
 31
0.0
  0
LINE
  5
619
  8
DEFAULT
 10
-460.9483188968655
 20
2989.625936545774
 30
0.0
 11
-460.9060568703987
 21
2989.500941995478
 31
0.0
  0
LINE
  5
61A
  8
DEFAULT
 10
-460.9060568703987
 20
2989.500941995478
 30
0.0
 11
-460.8676112715764
 21
2989.373123589226
 31
0.0
  0
LINE
  5
61B
  8
DEFAULT
 10
-460.8676112715764
 20
2989.373123589226
 30
0.0
 11
-460.8328425977281
 21
2989.242542059888
 31
0.0
  0
LINE
  5
61C
  8
DEFAULT
 10
-460.8328425977281
 20
2989.242542059888
 30
0.0
 11
-460.8016113461835
 21
2989.109258140334
 31
0.0
  0
LINE
  5
61D
  8
DEFAULT
 10
-460.8016113461835
 20
2989.109258140334
 30
0.0
 11
-460.7737780142719
 21
2988.973332563431
 31
0.0
  0
LINE
  5
61E
  8
DEFAULT
 10
-460.7737780142719
 20
2988.973332563431
 30
0.0
 11
-460.7492030993229
 21
2988.834826062051
 31
0.0
  0
LINE
  5
61F
  8
DEFAULT
 10
-460.7492030993229
 20
2988.834826062051
 30
0.0
 11
-460.7277470986662
 21
2988.69379936906
 31
0.0
  0
LINE
  5
620
  8
DEFAULT
 10
-460.7277470986662
 20
2988.69379936906
 30
0.0
 11
-460.7092705096312
 21
2988.55031321733
 31
0.0
  0
LINE
  5
621
  8
DEFAULT
 10
-460.7092705096312
 20
2988.55031321733
 30
0.0
 11
-460.6936338295473
 21
2988.40442833973
 31
0.0
  0
LINE
  5
622
  8
DEFAULT
 10
-460.6936338295473
 20
2988.40442833973
 30
0.0
 11
-460.6806975557442
 21
2988.256205469128
 31
0.0
  0
LINE
  5
623
  8
DEFAULT
 10
-460.6806975557442
 20
2988.256205469128
 30
0.0
 11
-460.6703221855514
 21
2988.105705338395
 31
0.0
  0
LINE
  5
624
  8
DEFAULT
 10
-460.6703221855514
 20
2988.105705338395
 30
0.0
 11
-460.6566961453147
 21
2987.798116228011
 31
0.0
  0
LINE
  5
625
  8
DEFAULT
 10
-460.6566961453147
 20
2987.798116228011
 30
0.0
 11
-460.6516396874733
 21
2987.482146871532
 31
0.0
  0
LINE
  5
626
  8
DEFAULT
 10
-460.6516396874733
 20
2987.482146871532
 30
0.0
 11
-460.6540367906637
 21
2987.158283131913
 31
0.0
  0
LINE
  5
627
  8
DEFAULT
 10
-460.6540367906637
 20
2987.158283131913
 30
0.0
 11
-460.6767275946841
 21
2986.488815955073
 31
0.0
  0
LINE
  5
628
  8
DEFAULT
 10
-492.1929945244428
 20
2990.022449144776
 30
0.0
 11
-493.3024392536299
 21
2987.2533494798
 31
0.0
  0
LINE
  5
629
  8
DEFAULT
 10
-496.9945721402637
 20
2988.732609118715
 30
0.0
 11
-495.8851274110775
 21
2991.501708783691
 31
0.0
  0
LINE
  5
62A
  8
DEFAULT
 10
-501.0653643289179
 20
2988.94951865436
 30
0.0
 11
-503.2913638954394
 21
2989.833351577747
 31
0.0
  0
LINE
  5
62B
  8
DEFAULT
 10
-503.2913638954394
 20
2989.833351577747
 30
0.0
 11
-508.6237242023053
 21
2992.132905881257
 31
0.0
  0
LINE
  5
62C
  8
DEFAULT
 10
-508.6237242023053
 20
2992.132905881257
 30
0.0
 11
-513.8117917566894
 21
2994.450045268765
 31
0.0
  0
LINE
  5
62D
  8
DEFAULT
 10
-513.8117917566894
 20
2994.450045268765
 30
0.0
 11
-515.217484848435
 21
2995.039334330858
 31
0.0
  0
LINE
  5
62E
  8
DEFAULT
 10
-515.217484848435
 20
2995.039334330858
 30
0.0
 11
-516.5730838058712
 21
2995.571644789237
 31
0.0
  0
LINE
  5
62F
  8
DEFAULT
 10
-516.5730838058712
 20
2995.571644789237
 30
0.0
 11
-517.898927765556
 21
2996.04797258908
 31
0.0
  0
LINE
  5
630
  8
DEFAULT
 10
-517.898927765556
 20
2996.04797258908
 30
0.0
 11
-518.5566872643687
 21
2996.265442160461
 31
0.0
  0
LINE
  5
631
  8
DEFAULT
 10
-518.5566872643687
 20
2996.265442160461
 30
0.0
 11
-519.2183885362709
 21
2996.470586611457
 31
0.0
  0
LINE
  5
632
  8
DEFAULT
 10
-519.2183885362709
 20
2996.470586611457
 30
0.0
 11
-519.8819960695558
 21
2996.662026493358
 31
0.0
  0
LINE
  5
633
  8
DEFAULT
 10
-519.8819960695558
 20
2996.662026493358
 30
0.0
 11
-520.3905191576348
 21
2996.798847828532
 31
0.0
  0
LINE
  5
634
  8
DEFAULT
 10
-520.3905191576348
 20
2996.798847828532
 30
0.0
 11
-521.1916397183991
 21
2996.996292211097
 31
0.0
  0
LINE
  5
635
  8
DEFAULT
 10
-521.1916397183991
 20
2996.996292211097
 30
0.0
 11
-521.9842462685422
 21
2997.167979766223
 31
0.0
  0
LINE
  5
636
  8
DEFAULT
 10
-521.9842462685422
 20
2997.167979766223
 30
0.0
 11
-522.7538016645456
 21
2997.309397735236
 31
0.0
  0
LINE
  5
637
  8
DEFAULT
 10
-522.7538016645456
 20
2997.309397735236
 30
0.0
 11
-523.1198560008536
 21
2997.366854613358
 31
0.0
  0
LINE
  5
638
  8
DEFAULT
 10
-523.1198560008536
 20
2997.366854613358
 30
0.0
 11
-523.4869258219228
 21
2997.417392358711
 31
0.0
  0
LINE
  5
639
  8
DEFAULT
 10
-523.4869258219228
 20
2997.417392358711
 30
0.0
 11
-523.8276056002413
 21
2997.457384003676
 31
0.0
  0
LINE
  5
63A
  8
DEFAULT
 10
-523.8276056002413
 20
2997.457384003676
 30
0.0
 11
-524.1690613395632
 21
2997.490037034967
 31
0.0
  0
LINE
  5
63B
  8
DEFAULT
 10
-524.1690613395632
 20
2997.490037034967
 30
0.0
 11
-524.4764463335171
 21
2997.512362410818
 31
0.0
  0
LINE
  5
63C
  8
DEFAULT
 10
-524.4764463335171
 20
2997.512362410818
 30
0.0
 11
-524.7842785327889
 21
2997.527125368956
 31
0.0
  0
LINE
  5
63D
  8
DEFAULT
 10
-524.7842785327889
 20
2997.527125368956
 30
0.0
 11
-525.0621241108927
 21
2997.533030786503
 31
0.0
  0
LINE
  5
63E
  8
DEFAULT
 10
-525.0621241108927
 20
2997.533030786503
 30
0.0
 11
-525.315234536523
 21
2997.531147579604
 31
0.0
  0
LINE
  5
63F
  8
DEFAULT
 10
-525.315234536523
 20
2997.531147579604
 30
0.0
 11
-525.542827240742
 21
2997.522552804058
 31
0.0
  0
LINE
  5
640
  8
DEFAULT
 10
-525.542827240742
 20
2997.522552804058
 30
0.0
 11
-525.7425826112168
 21
2997.508453746273
 31
0.0
  0
LINE
  5
641
  8
DEFAULT
 10
-525.7425826112168
 20
2997.508453746273
 30
0.0
 11
-525.8274685364709
 21
2997.500171720152
 31
0.0
  0
LINE
  5
642
  8
DEFAULT
 10
-525.8274685364709
 20
2997.500171720152
 30
0.0
 11
-525.912187683731
 21
2997.490328920301
 31
0.0
  0
LINE
  5
643
  8
DEFAULT
 10
-525.912187683731
 20
2997.490328920301
 30
0.0
 11
-525.9809876916386
 21
2997.481045124763
 31
0.0
  0
LINE
  5
644
  8
DEFAULT
 10
-525.9809876916386
 20
2997.481045124763
 30
0.0
 11
-526.049589228599
 21
2997.470408950982
 31
0.0
  0
LINE
  5
645
  8
DEFAULT
 10
-526.049589228599
 20
2997.470408950982
 30
0.0
 11
-526.1319519978426
 21
2997.455380041912
 31
0.0
  0
LINE
  5
646
  8
DEFAULT
 10
-526.1319519978426
 20
2997.455380041912
 30
0.0
 11
-526.1746370029042
 21
2997.446327017807
 31
0.0
  0
LINE
  5
647
  8
DEFAULT
 10
-526.1746370029042
 20
2997.446327017807
 30
0.0
 11
-526.203647862513
 21
2997.439515427729
 31
0.0
  0
LINE
  5
648
  8
DEFAULT
 10
-526.203647862513
 20
2997.439515427729
 30
0.0
 11
-526.2325025658532
 21
2997.432061770695
 31
0.0
  0
LINE
  5
649
  8
DEFAULT
 10
-526.2325025658532
 20
2997.432061770695
 30
0.0
 11
-526.248297002579
 21
2997.427533060747
 31
0.0
  0
LINE
  5
64A
  8
DEFAULT
 10
-526.248297002579
 20
2997.427533060747
 30
0.0
 11
-526.2535131600653
 21
2997.425865437286
 31
0.0
  0
LINE
  5
64B
  8
DEFAULT
 10
-526.2535131600653
 20
2997.425865437286
 30
0.0
 11
-526.266430104035
 21
2997.421586300739
 31
0.0
  0
ARC
  5
64C
  8
DEFAULT
 10
-527.5172315101793
 20
3001.197238585348
 30
0.0
 40
3.977443190278378
 50
108.5711924653118
 51
288.329046441166
  0
LINE
  5
64D
  8
DEFAULT
 10
-528.7839785315327
 20
3004.967570973319
 30
0.0
 11
-528.5064626015644
 21
3005.055509492505
 31
0.0
  0
LINE
  5
64E
  8
DEFAULT
 10
-528.5064626015644
 20
3005.055509492505
 30
0.0
 11
-528.2227992213421
 21
3005.135103329129
 31
0.0
  0
LINE
  5
64F
  8
DEFAULT
 10
-528.2227992213421
 20
3005.135103329129
 30
0.0
 11
-527.933268572564
 21
3005.206545022105
 31
0.0
  0
LINE
  5
650
  8
DEFAULT
 10
-527.933268572564
 20
3005.206545022105
 30
0.0
 11
-527.6381508369282
 21
3005.270027110348
 31
0.0
  0
LINE
  5
651
  8
DEFAULT
 10
-527.6381508369282
 20
3005.270027110348
 30
0.0
 11
-527.3377261961325
 21
3005.325742132771
 31
0.0
  0
LINE
  5
652
  8
DEFAULT
 10
-527.3377261961325
 20
3005.325742132771
 30
0.0
 11
-527.0322748318754
 21
3005.37388262829
 31
0.0
  0
LINE
  5
653
  8
DEFAULT
 10
-527.0322748318754
 20
3005.37388262829
 30
0.0
 11
-526.7220769258548
 21
3005.414641135819
 31
0.0
  0
LINE
  5
654
  8
DEFAULT
 10
-526.7220769258548
 20
3005.414641135819
 30
0.0
 11
-526.4074126597691
 21
3005.448210194273
 31
0.0
  0
LINE
  5
655
  8
DEFAULT
 10
-526.4074126597691
 20
3005.448210194273
 30
0.0
 11
-526.0885622153162
 21
3005.474782342565
 31
0.0
  0
LINE
  5
656
  8
DEFAULT
 10
-526.0885622153162
 20
3005.474782342565
 30
0.0
 11
-525.7658057741941
 21
3005.494550119611
 31
0.0
  0
LINE
  5
657
  8
DEFAULT
 10
-525.7658057741941
 20
3005.494550119611
 30
0.0
 11
-525.439423518101
 21
3005.507706064325
 31
0.0
  0
LINE
  5
658
  8
DEFAULT
 10
-525.439423518101
 20
3005.507706064325
 30
0.0
 11
-525.1096956287352
 21
3005.514442715621
 31
0.0
  0
LINE
  5
659
  8
DEFAULT
 10
-525.1096956287352
 20
3005.514442715621
 30
0.0
 11
-524.7769022877945
 21
3005.514952612414
 31
0.0
  0
LINE
  5
65A
  8
DEFAULT
 10
-524.7769022877945
 20
3005.514952612414
 30
0.0
 11
-524.4413236769773
 21
3005.509428293619
 31
0.0
  0
LINE
  5
65B
  8
DEFAULT
 10
-524.4413236769773
 20
3005.509428293619
 30
0.0
 11
-523.7629313725054
 21
3005.48104716492
 31
0.0
  0
LINE
  5
65C
  8
DEFAULT
 10
-523.7629313725054
 20
3005.48104716492
 30
0.0
 11
-523.0767601689043
 21
3005.43083964084
 31
0.0
  0
LINE
  5
65D
  8
DEFAULT
 10
-523.0767601689043
 20
3005.43083964084
 30
0.0
 11
-522.3850515197591
 21
3005.360346032695
 31
0.0
  0
LINE
  5
65E
  8
DEFAULT
 10
-522.3850515197591
 20
3005.360346032695
 30
0.0
 11
-521.6900468786546
 21
3005.271106651801
 31
0.0
  0
LINE
  5
65F
  8
DEFAULT
 10
-521.6900468786546
 20
3005.271106651801
 30
0.0
 11
-520.9939876991757
 21
3005.164661809474
 31
0.0
  0
LINE
  5
660
  8
DEFAULT
 10
-520.9939876991757
 20
3005.164661809474
 30
0.0
 11
-520.2991154349073
 21
3005.04255181703
 31
0.0
  0
LINE
  5
661
  8
DEFAULT
 10
-520.2991154349073
 20
3005.04255181703
 30
0.0
 11
-519.6076715394345
 21
3004.906316985784
 31
0.0
  0
LINE
  5
662
  8
DEFAULT
 10
-519.6076715394345
 20
3004.906316985784
 30
0.0
 11
-518.921897466342
 21
3004.757497627052
 31
0.0
  0
LINE
  5
663
  8
DEFAULT
 10
-518.921897466342
 20
3004.757497627052
 30
0.0
 11
-518.2440346692147
 21
3004.59763405215
 31
0.0
  0
LINE
  5
664
  8
DEFAULT
 10
-518.2440346692147
 20
3004.59763405215
 30
0.0
 11
-517.1136093654648
 21
3004.30392773618
 31
0.0
  0
LINE
  5
665
  8
DEFAULT
 10
-517.1136093654648
 20
3004.30392773618
 30
0.0
 11
-516.0071203434853
 21
3003.984331296772
 31
0.0
  0
LINE
  5
666
  8
DEFAULT
 10
-516.0071203434853
 20
3003.984331296772
 30
0.0
 11
-514.9191717232603
 21
3003.640412258542
 31
0.0
  0
LINE
  5
667
  8
DEFAULT
 10
-514.9191717232603
 20
3003.640412258542
 30
0.0
 11
-513.8443676247734
 21
3003.273738146107
 31
0.0
  0
LINE
  5
668
  8
DEFAULT
 10
-513.8443676247734
 20
3003.273738146107
 30
0.0
 11
-511.7126094729497
 21
3002.478394797085
 31
0.0
  0
LINE
  5
669
  8
DEFAULT
 10
-511.7126094729497
 20
3002.478394797085
 30
0.0
 11
-502.6321817319534
 21
2998.700323356056
 31
0.0
  0
LINE
  5
66A
  8
DEFAULT
 10
-502.6321817319534
 20
2998.700323356056
 30
0.0
 11
-500.0078908126332
 21
2997.669331969219
 31
0.0
  0
LINE
  5
66B
  8
DEFAULT
 10
-500.0078908126332
 20
2997.669331969219
 30
0.0
 11
-497.885046656188
 21
2996.887378351553
 31
0.0
  0
ARC
  5
66C
  8
DEFAULT
 10
83.20522432707708
 20
5096.849758160158
 30
0.0
 40
2179.328728634235
 50
254.9585046185414
 51
256.1165742501857
  0
ARC
  5
66D
  8
DEFAULT
 10
-439.2349543119204
 20
2983.117084551181
 30
0.0
 40
1.988721595138266
 50
255.9229706594511
 51
339.0612180071312
  0
LINE
  5
66E
  8
DEFAULT
 10
-437.3775623347419
 20
2982.406374606069
 30
0.0
 11
-437.1129097368927
 21
2983.119551103896
 31
0.0
  0
LINE
  5
66F
  8
DEFAULT
 10
-437.1129097368927
 20
2983.119551103896
 30
0.0
 11
-436.8580169578197
 21
2983.84886710358
 31
0.0
  0
LINE
  5
670
  8
DEFAULT
 10
-436.8580169578197
 20
2983.84886710358
 30
0.0
 11
-436.3754231115878
 21
2985.352950757469
 31
0.0
  0
LINE
  5
671
  8
DEFAULT
 10
-436.3754231115878
 20
2985.352950757469
 30
0.0
 11
-435.9256053072173
 21
2986.912691865632
 31
0.0
  0
LINE
  5
672
  8
DEFAULT
 10
-435.9256053072173
 20
2986.912691865632
 30
0.0
 11
-435.5043880558791
 21
2988.522156725969
 31
0.0
  0
LINE
  5
673
  8
DEFAULT
 10
-435.5043880558791
 20
2988.522156725969
 30
0.0
 11
-434.7310532569844
 21
2991.866522894747
 31
0.0
  0
LINE
  5
674
  8
DEFAULT
 10
-434.7310532569844
 20
2991.866522894747
 30
0.0
 11
-434.0220148042722
 21
2995.338579646982
 31
0.0
  0
LINE
  5
675
  8
DEFAULT
 10
-434.0220148042722
 20
2995.338579646982
 30
0.0
 11
-432.6632112948697
 21
3002.475886434534
 31
0.0
  0
LINE
  5
676
  8
DEFAULT
 10
-432.6632112948697
 20
3002.475886434534
 30
0.0
 11
-431.9466384169164
 21
3006.046197236206
 31
0.0
  0
LINE
  5
677
  8
DEFAULT
 10
-431.9466384169164
 20
3006.046197236206
 30
0.0
 11
-431.16074624262
 21
3009.554320154049
 31
0.0
  0
LINE
  5
678
  8
DEFAULT
 10
-421.8778224774005
 20
3007.021605316837
 30
0.0
 11
-422.7505295939029
 21
3002.787344062361
 31
0.0
  0
LINE
  5
679
  8
DEFAULT
 10
-422.7505295939029
 20
3002.787344062361
 30
0.0
 11
-424.8791131817731
 21
2990.979505336386
 31
0.0
  0
LINE
  5
67A
  8
DEFAULT
 10
-424.8791131817731
 20
2990.979505336386
 30
0.0
 11
-425.5847723492071
 21
2987.525547489613
 31
0.0
  0
LINE
  5
67B
  8
DEFAULT
 10
-425.5847723492071
 20
2987.525547489613
 30
0.0
 11
-426.1395100873107
 21
2985.132335234326
 31
0.0
  0
LINE
  5
67C
  8
DEFAULT
 10
-426.1395100873107
 20
2985.132335234326
 30
0.0
 11
-426.5770430289227
 21
2983.437023897698
 31
0.0
  0
LINE
  5
67D
  8
DEFAULT
 10
-426.5770430289227
 20
2983.437023897698
 30
0.0
 11
-427.0565902234366
 21
2981.756171196931
 31
0.0
  0
LINE
  5
67E
  8
DEFAULT
 10
-427.0565902234366
 20
2981.756171196931
 30
0.0
 11
-427.5873516575389
 21
2980.087311069883
 31
0.0
  0
LINE
  5
67F
  8
DEFAULT
 10
-427.5873516575389
 20
2980.087311069883
 30
0.0
 11
-427.8743448573604
 21
2979.259356349361
 31
0.0
  0
LINE
  5
680
  8
DEFAULT
 10
-427.8743448573604
 20
2979.259356349361
 30
0.0
 11
-428.1770527925231
 21
2978.437024795076
 31
0.0
  0
LINE
  5
681
  8
DEFAULT
 10
-428.1770527925231
 20
2978.437024795076
 30
0.0
 11
-428.4966836655181
 21
2977.620809079026
 31
0.0
  0
LINE
  5
682
  8
DEFAULT
 10
-428.4966836655181
 20
2977.620809079026
 30
0.0
 11
-428.8342617950284
 21
2976.811863139722
 31
0.0
  0
LINE
  5
683
  8
DEFAULT
 10
-428.8342617950284
 20
2976.811863139722
 30
0.0
 11
-428.8351341052812
 21
2976.809839039175
 31
0.0
  0
ARC
  5
684
  8
DEFAULT
 10
-437.9668296650168
 20
2980.745252077048
 30
0.0
 40
9.943607975696642
 50
254.6622368677998
 51
336.6857979095138
  0
ARC
  5
685
  8
DEFAULT
 10
337.1192602430563
 20
5825.514071264807
 30
0.0
 40
2958.412362741523
 50
253.9711107062461
 51
254.758802948717
  0
LINE
  5
686
  8
DEFAULT
 10
-428.1424116892476
 20
3019.049064829447
 30
0.0
 11
-427.7515566664994
 21
3019.945771351232
 31
0.0
  0
LINE
  5
687
  8
DEFAULT
 10
-427.7515566664994
 20
3019.945771351232
 30
0.0
 11
-427.3478299853799
 21
3020.824175230826
 31
0.0
  0
LINE
  5
688
  8
DEFAULT
 10
-427.3478299853799
 20
3020.824175230826
 30
0.0
 11
-426.9320879054272
 21
3021.684597657006
 31
0.0
  0
LINE
  5
689
  8
DEFAULT
 10
-426.9320879054272
 20
3021.684597657006
 30
0.0
 11
-426.5051866861793
 21
3022.527359818548
 31
0.0
  0
LINE
  5
68A
  8
DEFAULT
 10
-426.5051866861793
 20
3022.527359818548
 30
0.0
 11
-426.0679825871744
 21
3023.352782904227
 31
0.0
  0
LINE
  5
68B
  8
DEFAULT
 10
-426.0679825871744
 20
3023.352782904227
 30
0.0
 11
-425.6213318679505
 21
3024.16118810282
 31
0.0
  0
LINE
  5
68C
  8
DEFAULT
 10
-425.6213318679505
 20
3024.16118810282
 30
0.0
 11
-424.7031156069978
 21
3025.728229593851
 31
0.0
  0
LINE
  5
68D
  8
DEFAULT
 10
-424.7031156069978
 20
3025.728229593851
 30
0.0
 11
-423.7573879796256
 21
3027.231053801847
 31
0.0
  0
LINE
  5
68E
  8
DEFAULT
 10
-423.7573879796256
 20
3027.231053801847
 30
0.0
 11
-422.7909990621386
 21
3028.672230237017
 31
0.0
  0
LINE
  5
68F
  8
DEFAULT
 10
-422.7909990621386
 20
3028.672230237017
 30
0.0
 11
-421.8107989308411
 21
3030.054328409566
 31
0.0
  0
LINE
  5
690
  8
DEFAULT
 10
-421.8107989308411
 20
3030.054328409566
 30
0.0
 11
-420.8236376620376
 21
3031.379917829702
 31
0.0
  0
LINE
  5
691
  8
DEFAULT
 10
-420.8236376620376
 20
3031.379917829702
 30
0.0
 11
-418.8558320171304
 21
3033.871848453565
 31
0.0
  0
LINE
  5
692
  8
DEFAULT
 10
-418.8558320171304
 20
3033.871848453565
 30
0.0
 11
-413.4977557179283
 21
3040.258659328795
 31
0.0
  0
LINE
  5
693
  8
DEFAULT
 10
-413.4977557179283
 20
3040.258659328795
 30
0.0
 11
-412.6913869697428
 21
3041.272205437891
 31
0.0
  0
LINE
  5
694
  8
DEFAULT
 10
-412.6913869697428
 20
3041.272205437891
 30
0.0
 11
-411.9447182293302
 21
3042.250948602088
 31
0.0
  0
LINE
  5
695
  8
DEFAULT
 10
-411.9447182293302
 20
3042.250948602088
 30
0.0
 11
-411.2526964494908
 21
3043.199611922327
 31
0.0
  0
LINE
  5
696
  8
DEFAULT
 10
-411.2526964494908
 20
3043.199611922327
 30
0.0
 11
-410.6102685830247
 21
3044.122918499552
 31
0.0
  0
LINE
  5
697
  8
DEFAULT
 10
-410.6102685830247
 20
3044.122918499552
 30
0.0
 11
-410.0123815827322
 21
3045.025591434704
 31
0.0
  0
LINE
  5
698
  8
DEFAULT
 10
-410.0123815827322
 20
3045.025591434704
 30
0.0
 11
-409.4539824014139
 21
3045.912353828727
 31
0.0
  0
LINE
  5
699
  8
DEFAULT
 10
-409.4539824014139
 20
3045.912353828727
 30
0.0
 11
-408.9300179918698
 21
3046.787928782563
 31
0.0
  0
LINE
  5
69A
  8
DEFAULT
 10
-408.9300179918698
 20
3046.787928782563
 30
0.0
 11
-408.4354353069002
 21
3047.657039397152
 31
0.0
  0
LINE
  5
69B
  8
DEFAULT
 10
-408.4354353069002
 20
3047.657039397152
 30
0.0
 11
-407.9651812993055
 21
3048.52440877344
 31
0.0
  0
LINE
  5
69C
  8
DEFAULT
 10
-407.9651812993055
 20
3048.52440877344
 30
0.0
 11
-407.5142029218861
 21
3049.394760012367
 31
0.0
  0
LINE
  5
69D
  8
DEFAULT
 10
-407.5142029218861
 20
3049.394760012367
 30
0.0
 11
-406.6498608687738
 21
3051.16330048191
 31
0.0
  0
LINE
  5
69E
  8
DEFAULT
 10
-406.6498608687738
 20
3051.16330048191
 30
0.0
 11
-403.0388198000522
 21
3059.219960432785
 31
0.0
  0
LINE
  5
69F
  8
DEFAULT
 10
-403.0388198000522
 20
3059.219960432785
 30
0.0
 11
-401.082031387868
 21
3063.886536491302
 31
0.0
  0
LINE
  5
6A0
  8
DEFAULT
 10
-401.082031387868
 20
3063.886536491302
 30
0.0
 11
-400.1391133323836
 21
3066.30814131429
 31
0.0
  0
LINE
  5
6A1
  8
DEFAULT
 10
-400.1391133323836
 20
3066.30814131429
 30
0.0
 11
-399.2518582505032
 21
3068.757607121778
 31
0.0
  0
LINE
  5
6A2
  8
DEFAULT
 10
-399.2518582505032
 20
3068.757607121778
 30
0.0
 11
-398.4442752971256
 21
3071.211671255276
 31
0.0
  0
LINE
  5
6A3
  8
DEFAULT
 10
-398.4442752971256
 20
3071.211671255276
 30
0.0
 11
-398.0778637295314
 21
3072.433158113501
 31
0.0
  0
LINE
  5
6A4
  8
DEFAULT
 10
-398.0778637295314
 20
3072.433158113501
 30
0.0
 11
-397.74037362715
 21
3073.647071056295
 31
0.0
  0
LINE
  5
6A5
  8
DEFAULT
 10
-397.74037362715
 20
3073.647071056295
 30
0.0
 11
-397.4335530516786
 21
3074.851847151495
 31
0.0
  0
LINE
  5
6A6
  8
DEFAULT
 10
-397.4335530516786
 20
3074.851847151495
 30
0.0
 11
-397.154137734153
 21
3076.051303067519
 31
0.0
  0
LINE
  5
6A7
  8
DEFAULT
 10
-397.154137734153
 20
3076.051303067519
 30
0.0
 11
-396.6594534664227
 21
3078.454900636313
 31
0.0
  0
LINE
  5
6A8
  8
DEFAULT
 10
-396.6594534664227
 20
3078.454900636313
 30
0.0
 11
-394.8734563874839
 21
3088.888797457957
 31
0.0
  0
LINE
  5
6A9
  8
DEFAULT
 10
-394.8734563874839
 20
3088.888797457957
 30
0.0
 11
-394.2944480505736
 21
3091.908611042677
 31
0.0
  0
LINE
  5
6AA
  8
DEFAULT
 10
-394.2944480505736
 20
3091.908611042677
 30
0.0
 11
-393.5901584607246
 21
3095.175545476196
 31
0.0
  0
LINE
  5
6AB
  8
DEFAULT
 10
-393.5901584607246
 20
3095.175545476196
 30
0.0
 11
-392.7311643518094
 21
3098.719928141587
 31
0.0
  0
LINE
  5
6AC
  8
DEFAULT
 10
-392.7311643518094
 20
3098.719928141587
 30
0.0
 11
-391.714904645326
 21
3102.528225760056
 31
0.0
  0
LINE
  5
6AD
  8
DEFAULT
 10
-391.714904645326
 20
3102.528225760056
 30
0.0
 11
-390.5455338096796
 21
3106.57593988734
 31
0.0
  0
LINE
  5
6AE
  8
DEFAULT
 10
-390.5455338096796
 20
3106.57593988734
 30
0.0
 11
-389.2272063132748
 21
3110.838572079177
 31
0.0
  0
LINE
  5
6AF
  8
DEFAULT
 10
-389.2272063132748
 20
3110.838572079177
 30
0.0
 11
-386.1602992118097
 21
3119.910596879467
 31
0.0
  0
LINE
  5
6B0
  8
DEFAULT
 10
-386.1602992118097
 20
3119.910596879467
 30
0.0
 11
-382.5474190881696
 21
3129.548312606835
 31
0.0
  0
ARC
  5
6B1
  8
DEFAULT
 10
-378.8458029942327
 20
3128.092945771636
 30
0.0
 40
3.977443190278204
 50
338.5367039360349
 51
158.5367039360699
  0
LINE
  5
6B2
  8
DEFAULT
 10
-375.1441869002956
 20
3126.637578936435
 30
0.0
 11
-378.763151365465
 21
3116.550542512539
 31
0.0
  0
LINE
  5
6B3
  8
DEFAULT
 10
-378.763151365465
 20
3116.550542512539
 30
0.0
 11
-380.8407596932406
 21
3110.180362974245
 31
0.0
  0
LINE
  5
6B4
  8
DEFAULT
 10
-380.8407596932406
 20
3110.180362974245
 30
0.0
 11
-382.6315741894748
 21
3104.195633469814
 31
0.0
  0
LINE
  5
6B5
  8
DEFAULT
 10
-382.6315741894748
 20
3104.195633469814
 30
0.0
 11
-384.2509458706693
 21
3098.171781259457
 31
0.0
  0
LINE
  5
6B6
  8
DEFAULT
 10
-384.2509458706693
 20
3098.171781259457
 30
0.0
 11
-385.3986445785689
 21
3093.27038481607
 31
0.0
  0
LINE
  5
6B7
  8
DEFAULT
 10
-385.3986445785689
 20
3093.27038481607
 30
0.0
 11
-386.2511821263975
 21
3088.939579162785
 31
0.0
  0
LINE
  5
6B8
  8
DEFAULT
 10
-386.2511821263975
 20
3088.939579162785
 30
0.0
 11
-388.1467642660981
 21
3077.060670960899
 31
0.0
  0
LINE
  5
6B9
  8
DEFAULT
 10
-388.1467642660981
 20
3077.060670960899
 30
0.0
 11
-388.4943072925009
 21
3075.176831867979
 31
0.0
  0
LINE
  5
6BA
  8
DEFAULT
 10
-388.4943072925009
 20
3075.176831867979
 30
0.0
 11
-388.8941731671648
 21
3073.257710159473
 31
0.0
  0
LINE
  5
6BB
  8
DEFAULT
 10
-388.8941731671648
 20
3073.257710159473
 30
0.0
 11
-389.3596148881454
 21
3071.301199859035
 31
0.0
  0
LINE
  5
6BC
  8
DEFAULT
 10
-389.3596148881454
 20
3071.301199859035
 30
0.0
 11
-389.8915821259524
 21
3069.333877499861
 31
0.0
  0
LINE
  5
6BD
  8
DEFAULT
 10
-389.8915821259524
 20
3069.333877499861
 30
0.0
 11
-390.4776183958135
 21
3067.381130210773
 31
0.0
  0
LINE
  5
6BE
  8
DEFAULT
 10
-390.4776183958135
 20
3067.381130210773
 30
0.0
 11
-391.1066388731313
 21
3065.452158574071
 31
0.0
  0
LINE
  5
6BF
  8
DEFAULT
 10
-391.1066388731313
 20
3065.452158574071
 30
0.0
 11
-391.7675935511971
 21
3063.556923506712
 31
0.0
  0
LINE
  5
6C0
  8
DEFAULT
 10
-391.7675935511971
 20
3063.556923506712
 30
0.0
 11
-393.1562157101731
 21
3059.870133915924
 31
0.0
  0
LINE
  5
6C1
  8
DEFAULT
 10
-393.1562157101731
 20
3059.870133915924
 30
0.0
 11
-397.1303021268967
 21
3050.378672338939
 31
0.0
  0
LINE
  5
6C2
  8
DEFAULT
 10
-397.1303021268967
 20
3050.378672338939
 30
0.0
 11
-398.6959156159827
 21
3046.86293899304
 31
0.0
  0
LINE
  5
6C3
  8
DEFAULT
 10
-398.6959156159827
 20
3046.86293899304
 30
0.0
 11
-399.3734787621207
 21
3045.445248043654
 31
0.0
  0
LINE
  5
6C4
  8
DEFAULT
 10
-399.3734787621207
 20
3045.445248043654
 30
0.0
 11
-400.1018721638137
 21
3044.009453626837
 31
0.0
  0
LINE
  5
6C5
  8
DEFAULT
 10
-400.1018721638137
 20
3044.009453626837
 30
0.0
 11
-400.8914941646838
 21
3042.555248402846
 31
0.0
  0
LINE
  5
6C6
  8
DEFAULT
 10
-400.8914941646838
 20
3042.555248402846
 30
0.0
 11
-401.7551012063188
 21
3041.075914961029
 31
0.0
  0
LINE
  5
6C7
  8
DEFAULT
 10
-401.7551012063188
 20
3041.075914961029
 30
0.0
 11
-402.70487736822
 21
3039.564337705157
 31
0.0
  0
LINE
  5
6C8
  8
DEFAULT
 10
-402.70487736822
 20
3039.564337705157
 30
0.0
 11
-403.7474003949787
 21
3038.019934927957
 31
0.0
  0
LINE
  5
6C9
  8
DEFAULT
 10
-403.7474003949787
 20
3038.019934927957
 30
0.0
 11
-404.8884456284237
 21
3036.4398838183
 31
0.0
  0
LINE
  5
6CA
  8
DEFAULT
 10
-404.8884456284237
 20
3036.4398838183
 30
0.0
 11
-406.1315454593483
 21
3034.821594007425
 31
0.0
  0
LINE
  5
6CB
  8
DEFAULT
 10
-406.1315454593483
 20
3034.821594007425
 30
0.0
 11
-411.7933196763181
 21
3027.873971171103
 31
0.0
  0
LINE
  5
6CC
  8
DEFAULT
 10
-411.7933196763181
 20
3027.873971171103
 30
0.0
 11
-413.1701196397087
 21
3026.070775967201
 31
0.0
  0
LINE
  5
6CD
  8
DEFAULT
 10
-413.1701196397087
 20
3026.070775967201
 30
0.0
 11
-414.5105798150611
 21
3024.197245308087
 31
0.0
  0
LINE
  5
6CE
  8
DEFAULT
 10
-414.5105798150611
 20
3024.197245308087
 30
0.0
 11
-415.1661598350489
 21
3023.224516386771
 31
0.0
  0
LINE
  5
6CF
  8
DEFAULT
 10
-415.1661598350489
 20
3023.224516386771
 30
0.0
 11
-415.8011505261902
 21
3022.238239457701
 31
0.0
  0
LINE
  5
6D0
  8
DEFAULT
 10
-415.8011505261902
 20
3022.238239457701
 30
0.0
 11
-416.4271322903386
 21
3021.215562941828
 31
0.0
  0
LINE
  5
6D1
  8
DEFAULT
 10
-416.4271322903386
 20
3021.215562941828
 30
0.0
 11
-417.0280242173476
 21
3020.177959280973
 31
0.0
  0
LINE
  5
6D2
  8
DEFAULT
 10
-417.0280242173476
 20
3020.177959280973
 30
0.0
 11
-417.6143021902736
 21
3019.102259434027
 31
0.0
  0
LINE
  5
6D3
  8
DEFAULT
 10
-417.6143021902736
 20
3019.102259434027
 30
0.0
 11
-418.1709580525103
 21
3018.010953069547
 31
0.0
  0
LINE
  5
6D4
  8
DEFAULT
 10
-418.1709580525103
 20
3018.010953069547
 30
0.0
 11
-418.7867371836583
 21
3016.705375298477
 31
0.0
  0
ARC
  5
6D5
  8
INSIDE_THROUGH
 10
-998.6064301496717
 20
1634.886179860467
 30
0.0
 40
9.999984955869099
 50
190.7499249363282
 51
10.74994493655729
  0
LINE
  5
6D6
  8
INSIDE_THROUGH
 10
-988.7819391599687
 20
1636.75140797275
 30
0.0
 11
-996.702599181257
 21
1678.805867471505
 31
0.0
  0
ARC
  5
6D7
  8
INSIDE_THROUGH
 10
-1006.532924682732
 20
1676.971675160234
 30
0.0
 40
9.999978044960006
 50
10.56900753708327
 51
190.5690591513292
  0
LINE
  5
6D8
  8
INSIDE_THROUGH
 10
-1016.363248531892
 20
1675.137473993427
 30
0.0
 11
-1008.430921790469
 21
1633.020955177617
 31
0.0
  0
LINE
  5
6D9
  8
DEFAULT
 10
-449.1075703140059
 20
3005.362387052855
 30
0.0
 11
-476.0199530590162
 21
3005.362387052855
 31
0.0
  0
LINE
  5
6DA
  8
DEFAULT
 10
-476.0199530590162
 20
3005.362387052855
 30
0.0
 11
-432.0889121139853
 21
3005.362387052855
 31
0.0
  0
LINE
  5
6DB
  8
DEFAULT
 10
-432.0889121139853
 20
3005.362387052855
 30
0.0
 11
-439.2515835997037
 21
3005.362387052855
 31
0.0
  0
LINE
  5
6DC
  8
DEFAULT
 10
-474.1024317860483
 20
3009.252185209258
 30
0.0
 11
-474.2400019923143
 21
3009.339830243133
 31
0.0
  0
LINE
  5
6DD
  8
DEFAULT
 10
-474.2400019923143
 20
3009.339830243133
 30
0.0
 11
-431.2120400276835
 21
3009.339830243133
 31
0.0
  0
LINE
  5
6DE
  8
DEFAULT
 10
-526.3184758046873
 20
3005.456353467305
 30
0.0
 11
-526.3184758046873
 21
3009.339830243133
 31
0.0
  0
LINE
  5
6DF
  8
DEFAULT
 10
-526.3184758046873
 20
3009.339830243133
 30
0.0
 11
-492.895949553149
 21
3009.339830243133
 31
0.0
  0
ARC
  5
6E0
  8
DEFAULT
 10
-463.8801802442804
 20
3007.499996347693
 30
0.0
 40
9.943607975695405
 50
75.93626068015735
 51
153.4545371397545
  0
LINE
  5
6E1
  8
DEFAULT
 10
-461.463871953426
 20
3017.145554590629
 30
0.0
 11
-423.7587292532644
 21
3007.700041265261
 31
0.0
  0
ARC
  5
6E2
  8
DEFAULT
 10
-426.1750375441192
 20
2998.054483022326
 30
0.0
 40
9.943607975695281
 50
12.15936588170395
 51
75.9362606801545
  0
LINE
  5
6E3
  8
DEFAULT
 10
-416.4545092442941
 20
3000.148920690676
 30
0.0
 11
-411.5219694767384
 21
2977.256431157533
 31
0.0
  0
ARC
  5
6E4
  8
DEFAULT
 10
-421.2424977765634
 20
2975.161993489182
 30
0.0
 40
9.943607975695146
 50
254.7071579360822
 51
12.15936588170955
  0
LINE
  5
6E5
  8
DEFAULT
 10
-423.8651496983694
 20
2965.57048492841
 30
0.0
 11
-475.4859554618606
 21
2979.685407996334
 31
0.0
  0
ARC
  5
6E6
  8
DEFAULT
 10
-472.8633035400592
 20
2989.276916557106
 30
0.0
 40
9.943607975694407
 50
153.7584709432211
 51
254.7071579361085
  0
LINE
  5
6E7
  8
DEFAULT
 10
-481.7821046064437
 20
2993.67354334506
 30
0.0
 11
-472.7755333892364
 21
3011.94387213363
 31
0.0
  0
LINE
  5
6E8
  8
DEFAULT
 10
-397.6769308431358
 20
2913.0
 30
0.0
 11
-387.9101538224959
 21
2913.0
 31
0.0
  0
LINE
  5
6E9
  8
DEFAULT
 10
-387.9101538224959
 20
2913.0
 30
0.0
 11
-398.4310739367693
 21
3002.34631352653
 31
0.0
  0
ARC
  5
6EA
  8
DEFAULT
 10
-412.256602052828
 20
3000.718296979395
 30
0.0
 40
13.92105116597436
 50
6.715902064081464
 51
75.93626068015391
  0
LINE
  5
6EB
  8
DEFAULT
 10
-408.8737704456307
 20
3014.222078519505
 30
0.0
 11
-471.668057106298
 21
3029.952671985943
 31
0.0
  0
ARC
  5
6EC
  8
DEFAULT
 10
-475.0508887134944
 20
3016.448890445834
 30
0.0
 40
13.92105116597357
 50
75.93626068015618
 51
158.1664040916648
  0
LINE
  5
6ED
  8
DEFAULT
 10
-487.9733538167156
 20
3021.626299182034
 30
0.0
 11
-531.4946747004551
 21
2913.000000000002
 31
0.0
  0
LINE
  5
6EE
  8
DEFAULT
 10
-531.4946747004551
 20
2913.000000000002
 30
0.0
 11
-521.551066724759
 21
2913.000000000002
 31
0.0
  0
LINE
  5
6EF
  8
DEFAULT
 10
-521.551066724759
 20
2913.000000000002
 30
0.0
 11
-495.2165226177431
 21
2966.421081977683
 31
0.0
  0
ARC
  5
6F0
  8
DEFAULT
 10
-486.2977215513558
 20
2962.024455189731
 30
0.0
 40
9.943607975695883
 50
74.70715793609727
 51
153.7584709432371
  0
LINE
  5
6F1
  8
DEFAULT
 10
-483.6750696295521
 20
2971.615963750504
 30
0.0
 11
-411.5392242896851
 21
2951.891515587549
 31
0.0
  0
ARC
  5
6F2
  8
DEFAULT
 10
-414.1618762114862
 20
2942.300007026779
 30
0.0
 40
9.943607975693016
 50
12.15936588170152
 51
74.70715793610803
  0
LINE
  5
6F3
  8
DEFAULT
 10
-404.4413479116629
 20
2944.394444695128
 30
0.0
 11
-397.6769308431358
 21
2913.0
 31
0.0
  0
LINE
  5
6F4
  8
DEFAULT
 10
-455.9150841211558
 20
2975.378284604477
 30
0.0
 11
-455.859206988177
 21
2975.360616020439
 31
0.0
  0
LINE
  5
6F5
  8
DEFAULT
 10
-455.859206988177
 20
2975.360616020439
 30
0.0
 11
-453.9424102951862
 21
2974.830612227326
 31
0.0
  0
LINE
  5
6F6
  8
DEFAULT
 10
-453.9424102951862
 20
2974.830612227326
 30
0.0
 11
-453.9421331508815
 21
2974.831614539562
 31
0.0
  0
LINE
  5
6F7
  8
DEFAULT
 10
-453.9421331508815
 20
2974.831614539562
 30
0.0
 11
-453.9424102951862
 21
2974.830612227326
 31
0.0
  0
LINE
  5
6F8
  8
DEFAULT
 10
-522.4027752012344
 20
3005.362387052855
 30
0.0
 11
-494.4895192750705
 21
3005.362387052855
 31
0.0
  0
LINE
  5
6F9
  8
DEFAULT
 10
-494.4895192750705
 20
3005.362387052855
 30
0.0
 11
-508.0663468559014
 21
3005.362387052855
 31
0.0
  0
ARC
  5
6FA
  8
DEFAULT
 10
-485.3412620054465
 20
3004.226080674692
 30
0.0
 40
22.75347607829257
 50
177.1374636543519
 51
188.4384229338043
  0
LINE
  5
6FB
  8
DEFAULT
 10
-450.1088169092054
 20
2973.770604641102
 30
0.0
 11
-450.1084161854737
 21
2973.772053887192
 31
0.0
  0
LINE
  5
6FC
  8
DEFAULT
 10
-450.1084161854737
 20
2973.772053887192
 30
0.0
 11
-450.1088169092054
 21
2973.770604641102
 31
0.0
  0
LINE
  5
6FD
  8
DEFAULT
 10
-450.1088169092054
 20
2973.770604641102
 30
0.0
 11
-448.1920202162146
 21
2973.240600847989
 31
0.0
  0
ARC
  5
6FE
  8
DEFAULT
 10
-447.1320126297163
 20
2977.074194234956
 30
0.0
 40
3.977443191301197
 50
254.5436142795889
 51
256.7753555356925
  0
ENDSEC
  0
EOF
